  0
SECTION
  2
HEADER
  9
$ACADVER
  1
AC1015
  9
$ACADMAINTVER
 70
           6
  9
$DWGCODEPAGE
  3
ANSI_1252
  9
$INSBASE
 10
0.0
 20
0.0
 30
0.0
  9
$EXTMIN
 10
-5.578125
 20
-17.487563603277
 30
0.0
  9
$EXTMAX
 10
12.702944116754
 20
1.642336752371
 30
0.0
  9
$LIMMIN
 10
17.875
 20
-18.5
  9
$LIMMAX
 10
26.375
 20
-7.5
  9
$ORTHOMODE
 70
           0
  9
$REGENMODE
 70
           1
  9
$FILLMODE
 70
           1
  9
$QTEXTMODE
 70
           0
  9
$MIRRTEXT
 70
           1
  9
$LTSCALE
 40
1.0
  9
$ATTMODE
 70
           1
  9
$TEXTSIZE
 40
0.5
  9
$TRACEWID
 40
1.0
  9
$TEXTSTYLE
  7
STANDARD
  9
$CLAYER
  8
0
  9
$CELTYPE
  6
Continuous
  9
$CECOLOR
 62
           7
  9
$CELTSCALE
 40
1.0
  9
$DISPSILH
 70
           0
  9
$DIMSCALE
 40
1.0
  9
$DIMASZ
 40
0.25
  9
$DIMEXO
 40
0.0625
  9
$DIMDLI
 40
0.375
  9
$DIMRND
 40
0.01
  9
$DIMDLE
 40
0.0
  9
$DIMEXE
 40
0.125
  9
$DIMTP
 40
0.0
  9
$DIMTM
 40
0.0
  9
$DIMTXT
 40
0.15
  9
$DIMCEN
 40
0.09
  9
$DIMTSZ
 40
0.0
  9
$DIMTOL
 70
           0
  9
$DIMLIM
 70
           0
  9
$DIMTIH
 70
           1
  9
$DIMTOH
 70
           1
  9
$DIMSE1
 70
           0
  9
$DIMSE2
 70
           0
  9
$DIMTAD
 70
           1
  9
$DIMZIN
 70
           0
  9
$DIMBLK
  1

  9
$DIMASO
 70
           0
  9
$DIMSHO
 70
           1
  9
$DIMPOST
  1
<>in
  9
$DIMAPOST
  1

  9
$DIMALT
 70
           0
  9
$DIMALTD
 70
           2
  9
$DIMALTF
 40
1.0
  9
$DIMLFAC
 40
1.0
  9
$DIMTOFL
 70
           1
  9
$DIMTVP
 40
0.0
  9
$DIMTIX
 70
           0
  9
$DIMSOXD
 70
           0
  9
$DIMSAH
 70
           0
  9
$DIMBLK1
  1

  9
$DIMBLK2
  1

  9
$DIMSTYLE
  2
STANDARD
  9
$DIMCLRD
 70
           7
  9
$DIMCLRE
 70
           7
  9
$DIMCLRT
 70
           7
  9
$DIMTFAC
 40
1.0
  9
$DIMGAP
 40
0.0625
  9
$DIMJUST
 70
           0
  9
$DIMSD1
 70
           0
  9
$DIMSD2
 70
           0
  9
$DIMTOLJ
 70
           1
  9
$DIMTZIN
 70
           0
  9
$DIMALTZ
 70
           0
  9
$DIMALTTZ
 70
           0
  9
$DIMUPT
 70
           0
  9
$DIMDEC
 70
           2
  9
$DIMTDEC
 70
           2
  9
$DIMALTU
 70
           2
  9
$DIMALTTD
 70
           2
  9
$DIMTXSTY
  7
STANDARD
  9
$DIMAUNIT
 70
           0
  9
$DIMADEC
 70
           2
  9
$DIMALTRND
 40
0.0
  9
$DIMAZIN
 70
           0
  9
$DIMDSEP
 70
           0
  9
$DIMATFIT
 70
           0
  9
$DIMFRAC
 70
           0
  9
$DIMLDRBLK
  1

  9
$DIMLUNIT
 70
           2
  9
$DIMLWD
 70
           0
  9
$DIMLWE
 70
           0
  9
$DIMTMOVE
 70
           0
  9
$LUNITS
 70
           2
  9
$LUPREC
 70
           4
  9
$SKETCHINC
 40
1.0
  9
$FILLETRAD
 40
1.0
  9
$AUNITS
 70
           0
  9
$AUPREC
 70
           2
  9
$MENU
  1
acad
  9
$ELEVATION
 40
0.0
  9
$PELEVATION
 40
0.0
  9
$THICKNESS
 40
0.0
  9
$LIMCHECK
 70
           0
  9
$CHAMFERA
 40
0.0
  9
$CHAMFERB
 40
0.0
  9
$CHAMFERC
 40
0.0
  9
$CHAMFERD
 40
0.0
  9
$SKPOLY
 70
           0
  9
$TDCREATE
 40
0.000000000
  9
$TDUCREATE
 40
0.000000000
  9
$TDUPDATE
 40
2449702.667959363
  9
$TDUUPDATE
 40
0.000000000
  9
$TDINDWG
 40
0.0000000000
  9
$TDUSRTIMER
 40
0.0000000000
  9
$USRTIMER
 70
           1
  9
$ANGBASE
 50
0.0
  9
$ANGDIR
 70
           0
  9
$PDMODE
 70
           0
  9
$PDSIZE
 40
0.0
  9
$PLINEWID
 40
0.0
  9
$SPLFRAME
 70
           0
  9
$SPLINETYPE
 70
           5
  9
$SPLINESEGS
 70
          20
  9
$HANDSEED
  5
252
  9
$SURFTAB1
 70
           6
  9
$SURFTAB2
 70
           6
  9
$SURFTYPE
 70
           6
  9
$SURFU
 70
           6
  9
$SURFV
 70
           6
  9
$UCSBASE
  2

  9
$UCSNAME
  2

  9
$UCSORG
 10
0.0
 20
0.0
 30
0.0
  9
$UCSXDIR
 10
1.0
 20
0.0
 30
0.0
  9
$UCSYDIR
 10
0.0
 20
1.0
 30
0.0
  9
$UCSORTHOREF
  2

  9
$UCSORTHOVIEW
 70
           0
  9
$UCSORGTOP
 10
0.0
 20
0.0
 30
0.0
  9
$UCSORGBOTTOM
 10
0.0
 20
0.0
 30
0.0
  9
$UCSORGLEFT
 10
0.0
 20
0.0
 30
0.0
  9
$UCSORGRIGHT
 10
0.0
 20
0.0
 30
0.0
  9
$UCSORGFRONT
 10
0.0
 20
0.0
 30
0.0
  9
$UCSORGBACK
 10
0.0
 20
0.0
 30
0.0
  9
$PUCSBASE
  2

  9
$PUCSNAME
  2

  9
$PUCSORG
 10
0.0
 20
0.0
 30
0.0
  9
$PUCSXDIR
 10
1.0
 20
0.0
 30
0.0
  9
$PUCSYDIR
 10
0.0
 20
1.0
 30
0.0
  9
$PUCSORTHOREF
  2

  9
$PUCSORTHOVIEW
 70
           0
  9
$PUCSORGTOP
 10
0.0
 20
0.0
 30
0.0
  9
$PUCSORGBOTTOM
 10
0.0
 20
0.0
 30
0.0
  9
$PUCSORGLEFT
 10
0.0
 20
0.0
 30
0.0
  9
$PUCSORGRIGHT
 10
0.0
 20
0.0
 30
0.0
  9
$PUCSORGFRONT
 10
0.0
 20
0.0
 30
0.0
  9
$PUCSORGBACK
 10
0.0
 20
0.0
 30
0.0
  9
$USERI1
 70
           0
  9
$USERI2
 70
           0
  9
$USERI3
 70
           0
  9
$USERI4
 70
           0
  9
$USERI5
 70
           0
  9
$USERR1
 40
0.0
  9
$USERR2
 40
0.0
  9
$USERR3
 40
0.0
  9
$USERR4
 40
0.0
  9
$USERR5
 40
0.0
  9
$WORLDVIEW
 70
           1
  9
$SHADEDGE
 70
           3
  9
$SHADEDIF
 70
          70
  9
$TILEMODE
 70
           1
  9
$MAXACTVP
 70
          16
  9
$PINSBASE
 10
0.0
 20
0.0
 30
0.0
  9
$PLIMCHECK
 70
           0
  9
$PEXTMIN
 10
0.0
 20
0.0
 30
0.0
  9
$PEXTMAX
 10
11.0
 20
8.5
 30
0.0
  9
$PLIMMIN
 10
0.0
 20
0.0
  9
$PLIMMAX
 10
11.0
 20
8.5
  9
$UNITMODE
 70
           0
  9
$VISRETAIN
 70
           0
  9
$PLINEGEN
 70
           1
  9
$PSLTSCALE
 70
           1
  9
$TREEDEPTH
 70
        3020
  9
$CMLSTYLE
  2
STANDARD
  9
$CMLJUST
 70
           0
  9
$CMLSCALE
 40
1.0
  9
$PROXYGRAPHICS
 70
           0
  9
$MEASUREMENT
 70
           0
  9
$CELWEIGHT
370
           0
  9
$ENDCAPS
280
           0
  9
$JOINSTYLE
280
           0
  9
$LWDISPLAY
290
           0
  9
$INSUNITS
 70
           0
  9
$HYPERLINKBASE
  1

  9
$STYLESHEET
  1

  9
$XEDIT
290
           1
  9
$CEPSNTYPE
380
           0
  9
$PSTYLEMODE
290
           1
  9
$FINGERPRINTGUID
  2

  9
$VERSIONGUID
  2

  9
$EXTNAMES
290
           1
  9
$PSVPSCALE
 40
0.0
  0
ENDSEC
  0
SECTION
  2
CLASSES
  0
CLASS
  1
LWPOLYLINE
  2
AcDbPolyline
  3
AutoCAD 2000
 90
        0
280
           0
281
           1
  0
CLASS
  1
IMAGE
  2
AcDbRasterImage
  3
ISM
 90
    32895
280
           0
281
           1
  0
CLASS
  1
OLE2FRAME
  2
AcDbOle2Frame
  3
AutoCAD 2000
 90
    32768
280
           0
281
           1
  0
CLASS
  1
HATCH
  2
AcDbHatch
  3
AutoCAD 2000
 90
    32768
280
           0
281
           1
  0
CLASS
  1
DICTIONARYVAR
  2
AcDbDictionaryVar
  3
AutoCAD 2000
 90
    32768
280
           0
281
           0
  0
CLASS
  1
RASTERVARIABLES
  2
AcDbRasterVariables
  3
ISM
 90
    32768
280
           0
281
           0
  0
CLASS
  1
IMAGEDEF
  2
AcDbRasterImageDef
  3
ISM
 90
    32768
280
           0
281
           0
  0
CLASS
  1
IMAGEDEF_REACTOR
  2
AcDbRasterImageDefReactor
  3
ISM
 90
    32769
280
           0
281
           0
  0
CLASS
  1
IDBUFFER
  2
AcDbIdBuffer
  3
AutoCAD 2000
 90
    32768
280
           0
281
           0
  0
CLASS
  1
SPATIAL_FILTER
  2
AcDbSpatialFilter
  3
AutoCAD 2000
 90
    32768
280
           0
281
           0
  0
CLASS
  1
XRECORD
  2
AcDbXrecord
  3
AutoCAD 2000
 90
    32768
280
           0
281
           0
  0
CLASS
  1
SORTENTSTABLE
  2
AcDbSortentsTable
  3
AutoCAD 2000
 90
    32768
280
           0
281
           0
  0
CLASS
  1
LAYER_INDEX
  2
AcDbLayerIndex
  3
AutoCAD 2000
 90
    32768
280
           0
281
           0
  0
CLASS
  1
SPATIAL_INDEX
  2
AcDbSpatialIndex
  3
AutoCAD 2000
 90
    32768
280
           0
281
           0
  0
CLASS
  1
OBJECT_PTR
  2
CAseDLPNTableRecord
  3
"ASE-LPNTableRecord"
 90
    32769
280
           0
281
           0
  0
CLASS
  1
LAYOUT
  2
AcDbLayout
  3
AutoCAD 2000
 90
        0
280
           0
281
           0
  0
CLASS
  1
PLOTSETTINGS
  2
AcDbPlotSettings
  3
AutoCAD 2000
 90
    32768
280
           0
281
           0
  0
CLASS
  1
ACDBDICTIONARYWDFLT
  2
AcDbDictionaryWithDefault
  3
AutoCAD 2000
 90
        0
280
           0
281
           0
  0
CLASS
  1
ACDBPLACEHOLDER
  2
AcDbPlaceHolder
  3
AutoCAD 2000
 90
        0
280
           0
281
           0
  0
ENDSEC
  0
SECTION
  2
TABLES
  0
TABLE
  2
VPORT
  5
7
100
AcDbSymbolTable
 70
           1
  0
VPORT
  5
15
100
AcDbSymbolTableRecord
100
AcDbViewportTableRecord
  2
*ACTIVE
 70
           0
 10
0.0
 20
0.0
 11
1.0
 21
1.0
 12
0.0
 22
0.0
 13
0.0
 23
0.0
 14
0.5
 24
0.5
 15
0.5
 25
0.5
 16
0.0
 26
0.0
 36
1.0
 17
3.5624095584
 27
-7.9226134255
 37
0.0
 40
19.512498362811
 41
2.005059021922
 42
50.0
 43
0.0
 44
0.0
 50
0.0
 51
0.0
 71
           0
 72
         100
 73
           1
 74
           1
 75
           0
 76
           0
 77
           0
 78
           0
281
           0
 65
           0
110
0.0
120
0.0
130
0.0
111
1.0
121
0.0
131
0.0
112
0.0
122
1.0
132
0.0
345
0
346
0
 79
           0
146
0.0
  0
ENDTAB
  0
TABLE
  2
LTYPE
  5
4
100
AcDbSymbolTable
 70
          15
  0
LTYPE
  5
11
100
AcDbSymbolTableRecord
100
AcDbLinetypeTableRecord
  2
ByBlock
 70
          64
  3

 72
          65
 73
           0
 40
0.0
  0
LTYPE
  5
12
100
AcDbSymbolTableRecord
100
AcDbLinetypeTableRecord
  2
ByLayer
 70
          64
  3

 72
          65
 73
           0
 40
0.0
  0
LTYPE
  5
13
100
AcDbSymbolTableRecord
100
AcDbLinetypeTableRecord
  2
Continuous
 70
          64
  3
Solid line
 72
          65
 73
           0
 40
0.0
  0
LTYPE
  5
24
100
AcDbSymbolTableRecord
100
AcDbLinetypeTableRecord
  2
BORDER
 70
           0
  3
BORDER
 72
          65
 73
           6
 40
1.75
 49
0.5
 74
           0
 49
-0.25
 74
           0
 49
0.5
 74
           0
 49
-0.25
 74
           0
 49
0.0
 74
           0
 49
-0.25
 74
           0
  0
LTYPE
  5
25
100
AcDbSymbolTableRecord
100
AcDbLinetypeTableRecord
  2
CENTER
 70
           0
  3
CENTER
 72
          65
 73
           4
 40
2.0
 49
1.25
 74
           0
 49
-0.25
 74
           0
 49
0.25
 74
           0
 49
-0.25
 74
           0
  0
LTYPE
  5
26
100
AcDbSymbolTableRecord
100
AcDbLinetypeTableRecord
  2
DASHDOT
 70
           0
  3
DASHDOT
 72
          65
 73
           4
 40
1.0
 49
0.5
 74
           0
 49
-0.25
 74
           0
 49
0.0
 74
           0
 49
-0.25
 74
           0
  0
LTYPE
  5
27
100
AcDbSymbolTableRecord
100
AcDbLinetypeTableRecord
  2
DASHED
 70
           0
  3
DASHED
 72
          65
 73
           2
 40
0.75
 49
0.5
 74
           0
 49
-0.25
 74
           0
  0
LTYPE
  5
28
100
AcDbSymbolTableRecord
100
AcDbLinetypeTableRecord
  2
DIVIDE
 70
           0
  3
DIVIDE
 72
          65
 73
           6
 40
1.25
 49
0.5
 74
           0
 49
-0.25
 74
           0
 49
0.0
 74
           0
 49
-0.25
 74
           0
 49
0.0
 74
           0
 49
-0.25
 74
           0
  0
LTYPE
  5
29
100
AcDbSymbolTableRecord
100
AcDbLinetypeTableRecord
  2
DOT
 70
           0
  3
DOT
 72
          65
 73
           2
 40
0.25
 49
0.0
 74
           0
 49
-0.25
 74
           0
  0
LTYPE
  5
2A
100
AcDbSymbolTableRecord
100
AcDbLinetypeTableRecord
  2
HIDDEN
 70
           0
  3
HIDDEN
 72
          65
 73
           2
 40
0.375
 49
0.25
 74
           0
 49
-0.125
 74
           0
  0
LTYPE
  5
2B
100
AcDbSymbolTableRecord
100
AcDbLinetypeTableRecord
  2
PHANTOM
 70
           0
  3
PHANTOM
 72
          65
 73
           6
 40
2.5
 49
1.25
 74
           0
 49
-0.25
 74
           0
 49
0.25
 74
           0
 49
-0.25
 74
           0
 49
0.25
 74
           0
 49
-0.25
 74
           0
  0
LTYPE
  5
2C
100
AcDbSymbolTableRecord
100
AcDbLinetypeTableRecord
  2
$INVISIBLE
 70
           0
  3
$INVISIBLE
 72
          65
 73
           2
 40
200.0
 49
-100.0
 74
           0
 49
-100.0
 74
           0
  0
LTYPE
  5
2D
100
AcDbSymbolTableRecord
100
AcDbLinetypeTableRecord
  2
$SNAPEXT
 70
           0
  3
$SNAPEXT
 72
          65
 73
           2
 40
0.04
 49
0.02
 74
           0
 49
-0.02
 74
           0
  0
LTYPE
  5
2E
100
AcDbSymbolTableRecord
100
AcDbLinetypeTableRecord
  2
$AUXILIARY
 70
           0
  3
$AUXILIARY
 72
          65
 73
           2
 40
0.1
 49
0.05
 74
           0
 49
-0.05
 74
           0
  0
LTYPE
  5
2F
100
AcDbSymbolTableRecord
100
AcDbLinetypeTableRecord
  2
$CONSTRUCTION
 70
           0
  3
$CONSTRUCTION
 72
          65
 73
           4
 40
0.3
 49
0.2
 74
           0
 49
-0.05
 74
           0
 49
0.0
 74
           0
 49
-0.05
 74
           0
  0
ENDTAB
  0
TABLE
  2
LAYER
  5
2
100
AcDbSymbolTable
 70
           6
  0
LAYER
  5
14
100
AcDbSymbolTableRecord
100
AcDbLayerTableRecord
  2
0
 70
           0
 62
           7
  6
Continuous
290
           1
370
           0
390
0
1001
TCAD
1000
TCW_LAYER_ORDER
1002
{
1071
        0
1002
}
  0
LAYER
  5
30
100
AcDbSymbolTableRecord
100
AcDbLayerTableRecord
  2
Exterior View
 70
           0
 62
           7
  6
Continuous
290
           1
370
           0
390
0
1001
TCAD
1000
TCW_LAYER_ORDER
1002
{
1071
        0
1002
}
  0
LAYER
  5
31
100
AcDbSymbolTableRecord
100
AcDbLayerTableRecord
  2
Hidden
 70
           0
 62
           7
  6
Continuous
290
           1
370
           0
390
0
1001
TCAD
1000
TCW_LAYER_ORDER
1002
{
1071
        0
1002
}
  0
LAYER
  5
32
100
AcDbSymbolTableRecord
100
AcDbLayerTableRecord
  2
$CONSTRUCTION
 70
           0
 62
          -9
  6
$CONSTRUCTION
290
           1
370
           0
390
0
1001
TCAD
1000
TCW_LAYER_ORDER
1002
{
1071
        0
1002
}
  0
LAYER
  5
33
100
AcDbSymbolTableRecord
100
AcDbLayerTableRecord
  2
Strings
 70
           0
 62
           7
  6
Continuous
290
           1
370
           0
390
0
1001
TCAD
1000
TCW_LAYER_ORDER
1002
{
1071
        0
1002
}
  0
LAYER
  5
34
100
AcDbSymbolTableRecord
100
AcDbLayerTableRecord
  2
Aux Views
 70
           0
 62
           7
  6
Continuous
290
           1
370
           0
390
0
1001
TCAD
1000
TCW_LAYER_ORDER
1002
{
1071
        0
1002
}
  0
ENDTAB
  0
TABLE
  2
STYLE
  5
3
100
AcDbSymbolTable
 70
           1
  0
STYLE
  5
17
100
AcDbSymbolTableRecord
100
AcDbTextStyleTableRecord
  2
STANDARD
 70
           0
 40
0.0
 41
1.0
 50
0.0
 71
           0
 42
0.300000011921
  3
TIMES.TTF
  4

1001
ACAD
1000
Times New Roman
1071
      290
  0
ENDTAB
  0
TABLE
  2
VIEW
  5
5
100
AcDbSymbolTable
 70
           1
  0
VIEW
  5
35
100
AcDbSymbolTableRecord
100
AcDbViewTableRecord
  2
View_0
 70
           0
 40
8.267716535433
 10
5.846456692913
 20
4.133858267717
 41
11.692913385827
 11
0.0
 21
0.0
 31
1.0
 12
0.0
 22
0.0
 32
0.0
 42
92.090489446729
 43
0.0
 44
0.0
 50
0.0
 71
           0
281
           0
 72
           0
110
0.0
120
0.0
130
0.0
111
1.0
121
0.0
131
0.0
112
0.0
122
1.0
132
0.0
  0
ENDTAB
  0
TABLE
  2
UCS
  5
6
100
AcDbSymbolTable
 70
           0
  0
ENDTAB
  0
TABLE
  2
APPID
  5
8
100
AcDbSymbolTable
 70
           2
  0
APPID
  5
16
100
AcDbSymbolTableRecord
100
AcDbRegAppTableRecord
  2
ACAD
 70
           0
  0
APPID
  5
23
100
AcDbSymbolTableRecord
100
AcDbRegAppTableRecord
  2
TCAD
 70
           0
  0
ENDTAB
  0
TABLE
  2
DIMSTYLE
  5
9
100
AcDbSymbolTable
 70
           1
100
AcDbDimStyleTable
 71
           0
  0
DIMSTYLE
105
18
100
AcDbSymbolTableRecord
100
AcDbDimStyleTableRecord
  2
STANDARD
 70
           0
  3
<>in
  4

 40
1.0
 41
0.25
 42
0.0625
 43
0.375
 44
0.125
 45
0.01
 46
0.0
 47
0.0
 48
0.0
 71
           0
 72
           0
 73
           1
 74
           1
 75
           0
 76
           0
 77
           1
 78
           0
 79
           0
140
0.15
141
0.09
142
0.0
143
1.0
144
1.0
145
0.0
146
1.0
147
0.0625
148
0.01
170
           0
171
           2
172
           1
173
           0
174
           0
175
           0
176
           7
177
           7
178
           7
179
           2
271
           2
272
           2
273
           2
274
           2
275
           0
276
           0
277
           2
278
          46
279
           0
280
           0
281
           0
282
           0
283
           1
284
           0
285
           0
286
           0
288
           0
340
17
341
0
342
0
343
0
344
0
371
          -2
372
          -2
  0
ENDTAB
  0
TABLE
  2
BLOCK_RECORD
  5
1
100
AcDbSymbolTable
 70
           0
  0
BLOCK_RECORD
  5
A
100
AcDbSymbolTableRecord
100
AcDbBlockTableRecord
  2
*MODEL_SPACE
340
250
  0
BLOCK_RECORD
  5
B
100
AcDbSymbolTableRecord
100
AcDbBlockTableRecord
  2
*PAPER_SPACE
340
251
  0
ENDTAB
  0
ENDSEC
  0
SECTION
  2
BLOCKS
  0
BLOCK
  5
D
100
AcDbEntity
  8
0
100
AcDbBlockBegin
  2
*MODEL_SPACE
 70
           0
 10
0.0
 20
0.0
 30
0.0
  3
*MODEL_SPACE
  1

  0
ENDBLK
  5
E
100
AcDbEntity
  8
0
100
AcDbBlockEnd
  0
BLOCK
  5
F
100
AcDbEntity
 67
           1
  8
0
100
AcDbBlockBegin
  2
*PAPER_SPACE
 70
           0
 10
0.0
 20
0.0
 30
0.0
  3
*PAPER_SPACE
  1

  0
ENDBLK
  5
10
100
AcDbEntity
 67
           1
  8
0
100
AcDbBlockEnd
  0
ENDSEC
  0
SECTION
  2
ENTITIES
  0
LINE
  5
36
100
AcDbEntity
  8
Exterior View
370
           0
  6
Continuous
 62
           7
100
AcDbLine
 10
0.0
 20
-0.125008986764
 30
0.0
 11
1.125200633743
 21
-0.125008986764
 31
0.0
1001
TCAD
1000
TCW_CUSTOM_DATA
1002
{
1000
#$AUX@_ToolInfo Properties
1070
           8
1000
Insert^JLine^JSingle@Line Single
1002
}
  0
LINE
  5
37
100
AcDbEntity
  8
Exterior View
370
           0
  6
Continuous
 62
           7
100
AcDbLine
 10
-0.170887149218
 20
-7.062008986764
 30
0.0
 11
1.295852887444
 21
-7.062008986764
 31
0.0
1001
TCAD
1000
TCW_CUSTOM_DATA
1002
{
1000
#$AUX@_ToolInfo Properties
1070
           8
1000
Insert^JLine^JPerpendicular@Line Perpendicular
1002
}
  0
LINE
  5
38
100
AcDbEntity
  8
Exterior View
370
           0
  6
Continuous
 62
           7
100
AcDbLine
 10
-0.019186161066
 20
-0.904008986764
 30
0.0
 11
1.144186161066
 21
-0.904008986764
 31
0.0
1001
TCAD
1000
TCW_CUSTOM_DATA
1002
{
1000
#$AUX@_ToolInfo Properties
1070
           8
1000
Insert^JLine^JPerpendicular@Line Perpendicular
1002
}
  0
LINE
  5
39
100
AcDbEntity
  8
Exterior View
370
           0
  6
Continuous
 62
           7
100
AcDbLine
 10
-0.037288636526
 20
-1.639008986764
 30
0.0
 11
1.162288636526
 21
-1.639008986764
 31
0.0
1001
TCAD
1000
TCW_CUSTOM_DATA
1002
{
1000
#$AUX@_ToolInfo Properties
1070
           8
1000
Insert^JLine^JPerpendicular@Line Perpendicular
1002
}
  0
LINE
  5
3A
100
AcDbEntity
  8
Exterior View
370
           0
  6
Continuous
 62
           7
100
AcDbLine
 10
-0.054381314036
 20
-2.333008986764
 30
0.0
 11
1.179381314036
 21
-2.333008986764
 31
0.0
1001
TCAD
1000
TCW_CUSTOM_DATA
1002
{
1000
#$AUX@_ToolInfo Properties
1070
           8
1000
Insert^JLine^JPerpendicular@Line Perpendicular
1002
}
  0
CIRCLE
  5
3B
100
AcDbEntity
  8
Exterior View
370
           0
  6
Continuous
 62
           7
100
AcDbCircle
 10
0.927193791646
 20
-6.856008986764
 30
0.0
 40
0.09375
1001
TCAD
1000
TCW_CUSTOM_DATA
1002
{
1000
#$AUX@_ToolInfo Properties
1070
           8
1000
Insert^JCircle^JCenterAndPoint@Circle CenterAndPoint
1002
}
  0
CIRCLE
  5
3C
100
AcDbEntity
  8
Exterior View
370
           0
  6
Continuous
 62
           7
100
AcDbCircle
 10
0.197806208354
 20
-6.856008986764
 30
0.0
 40
0.09375
1001
TCAD
1000
TCW_CUSTOM_DATA
1002
{
1000
#$AUX@_ToolInfo Properties
1070
           8
1000
Insert^JCircle^JCenterAndPoint@Circle CenterAndPoint
1002
}
  0
LINE
  5
3D
100
AcDbEntity
  8
Exterior View
370
           0
  6
Continuous
 62
           7
100
AcDbLine
 10
-0.160705649495
 20
-6.650008986764
 30
0.0
 11
1.285705649495
 21
-6.650008986764
 31
0.0
1001
TCAD
1000
TCW_CUSTOM_DATA
1002
{
1000
#$AUX@_ToolInfo Properties
1070
           8
1000
Insert^JLine^JPerpendicular@Line Perpendicular
1002
}
  0
LINE
  5
3E
100
AcDbEntity
  8
Exterior View
370
           0
  6
Continuous
 62
           7
100
AcDbLine
 10
-0.149942681092
 20
-6.213008986764
 30
0.0
 11
1.274942681092
 21
-6.213008986764
 31
0.0
1001
TCAD
1000
TCW_CUSTOM_DATA
1002
{
1000
#$AUX@_ToolInfo Properties
1070
           8
1000
Insert^JLine^JPerpendicular@Line Perpendicular
1002
}
  0
LINE
  5
3F
100
AcDbEntity
  8
Exterior View
370
           0
  6
Continuous
 62
           7
100
AcDbLine
 10
-0.138539353013
 20
-5.750008986764
 30
0.0
 11
1.263539353013
 21
-5.750008986764
 31
0.0
1001
TCAD
1000
TCW_CUSTOM_DATA
1002
{
1000
#$AUX@_ToolInfo Properties
1070
           8
1000
Insert^JLine^JPerpendicular@Line Perpendicular
1002
}
  0
LINE
  5
40
100
AcDbEntity
  8
Exterior View
370
           0
  6
Continuous
 62
           7
100
AcDbLine
 10
-0.126446406821
 20
-5.259008986764
 30
0.0
 11
1.251446406821
 21
-5.259008986764
 31
0.0
1001
TCAD
1000
TCW_CUSTOM_DATA
1002
{
1000
#$AUX@_ToolInfo Properties
1070
           8
1000
Insert^JLine^JPerpendicular@Line Perpendicular
1002
}
  0
LINE
  5
41
100
AcDbEntity
  8
Exterior View
370
           0
  6
Continuous
 62
           7
100
AcDbLine
 10
-0.113663842516
 20
-4.740008986764
 30
0.0
 11
1.238663842516
 21
-4.740008986764
 31
0.0
1001
TCAD
1000
TCW_CUSTOM_DATA
1002
{
1000
#$AUX@_ToolInfo Properties
1070
           8
1000
Insert^JLine^JPerpendicular@Line Perpendicular
1002
}
  0
LINE
  5
42
100
AcDbEntity
  8
Exterior View
370
           0
  6
Continuous
 62
           7
100
AcDbLine
 10
-0.100093143226
 20
-4.189008986764
 30
0.0
 11
1.225093143226
 21
-4.189008986764
 31
0.0
1001
TCAD
1000
TCW_CUSTOM_DATA
1002
{
1000
#$AUX@_ToolInfo Properties
1070
           8
1000
Insert^JLine^JPerpendicular@Line Perpendicular
1002
}
  0
LINE
  5
43
100
AcDbEntity
  8
Exterior View
370
           0
  6
Continuous
 62
           7
100
AcDbLine
 10
-0.070488822813
 20
-2.987008986764
 30
0.0
 11
1.195488822813
 21
-2.987008986764
 31
0.0
1001
TCAD
1000
TCW_CUSTOM_DATA
1002
{
1000
#$AUX@_ToolInfo Properties
1070
           8
1000
Insert^JLine^JPerpendicular@Line Perpendicular
1002
}
  0
LINE
  5
44
100
AcDbEntity
  8
Exterior View
370
           0
  6
Continuous
 62
           7
100
AcDbLine
 10
-0.085709679731
 20
-3.605008986764
 30
0.0
 11
1.210709679731
 21
-3.605008986764
 31
0.0
1001
TCAD
1000
TCW_CUSTOM_DATA
1002
{
1000
#$AUX@_ToolInfo Properties
1070
           8
1000
Insert^JLine^JPerpendicular@Line Perpendicular
1002
}
  0
LINE
  5
45
100
AcDbEntity
  8
Exterior View
370
           0
  6
Continuous
 62
           7
100
AcDbLine
 10
-0.189497205703
 20
-7.819008986764
 30
0.0
 11
1.314497205703
 21
-7.819008986764
 31
0.0
1001
TCAD
1000
TCW_CUSTOM_DATA
1002
{
1000
#$AUX@_ToolInfo Properties
1070
           8
1000
Insert^JLine^JPerpendicular@Line Perpendicular
1002
}
  0
LINE
  5
46
100
AcDbEntity
  8
Exterior View
370
           0
  6
Continuous
 62
           7
100
AcDbLine
 10
-0.180458282582
 20
-7.452008986764
 30
0.0
 11
1.305458282582
 21
-7.452008986764
 31
0.0
1001
TCAD
1000
TCW_CUSTOM_DATA
1002
{
1000
#$AUX@_ToolInfo Properties
1070
           8
1000
Insert^JLine^JPerpendicular@Line Perpendicular
1002
}
  0
LINE
  5
47
100
AcDbEntity
  8
Exterior View
370
           0
  6
Continuous
 62
           7
100
AcDbLine
 10
0.0
 20
-0.125008986764
 30
0.0
 11
0.0
 21
-0.0
 31
0.0
1001
TCAD
1000
TCW_CUSTOM_DATA
1002
{
1000
#$AUX@_ToolInfo Properties
1070
           8
1000
Insert^JLine^JPerpendicular@Line Perpendicular
1002
}
  0
LINE
  5
48
100
AcDbEntity
  8
Exterior View
370
           0
  6
Continuous
 62
           7
100
AcDbLine
 10
1.125
 20
-0.125008986764
 30
0.0
 11
1.125
 21
-0.0
 31
0.0
1001
TCAD
1000
TCW_CUSTOM_DATA
1002
{
1000
#$AUX@_ToolInfo Properties
1070
           8
1000
Insert^JLine^JPerpendicular@Line Perpendicular
1002
}
  0
LINE
  5
49
100
AcDbEntity
  8
Exterior View
370
           0
  6
Continuous
 62
           7
100
AcDbLine
 10
1.125
 20
-0.0
 30
0.0
 11
0.0
 21
-0.0
 31
0.0
1001
TCAD
1000
TCW_CUSTOM_DATA
1002
{
1000
#$AUX@_ToolInfo Properties
1070
           8
1000
Insert^JLine^JPerpendicular@Line Perpendicular
1002
}
  0
LINE
  5
4A
100
AcDbEntity
  8
Exterior View
370
           0
  6
Continuous
 62
           7
100
AcDbLine
 10
-0.224266926705
 20
-9.230735520653
 30
0.0
 11
0.0
 21
-0.125008986764
 31
0.0
1001
TCAD
1000
TCW_CUSTOM_DATA
1002
{
1000
#$AUX@_ToolInfo Properties
1070
           8
1000
Insert^JLine^JSingle@Line Single
1002
}
  0
LINE
  5
4B
100
AcDbEntity
  8
Exterior View
370
           0
  6
Continuous
 62
           7
100
AcDbLine
 10
1.349266926705
 20
-9.230735520653
 30
0.0
 11
1.125
 21
-0.125008986764
 31
0.0
1001
TCAD
1000
TCW_CUSTOM_DATA
1002
{
1000
#$AUX@_ToolInfo Properties
1070
           8
1000
Insert^JLine^JSingle@Line Single
1002
}
  0
LINE
  5
4C
100
AcDbEntity
  8
Exterior View
370
           0
  6
Continuous
 62
           7
100
AcDbLine
 10
0.171875
 20
-0.0
 30
0.0
 11
0.171875
 21
-0.125008986764
 31
0.0
1001
TCAD
1000
TCW_CUSTOM_DATA
1002
{
1000
#$AUX@_ToolInfo Properties
1070
           8
1000
Insert^JLine^JPerpendicular@Line Perpendicular
1002
}
  0
LINE
  5
4D
100
AcDbEntity
  8
Exterior View
370
           0
  6
Continuous
 62
           7
100
AcDbLine
 10
0.42715
 20
-0.0
 30
0.0
 11
0.42715
 21
-0.125008986764
 31
0.0
1001
TCAD
1000
TCW_CUSTOM_DATA
1002
{
1000
#$AUX@_ToolInfo Properties
1070
           8
1000
Insert^JLine^JPerpendicular@Line Perpendicular
1002
}
  0
LINE
  5
4E
100
AcDbEntity
  8
Exterior View
370
           0
  6
Continuous
 62
           7
100
AcDbLine
 10
0.69795
 20
-0.0
 30
0.0
 11
0.69795
 21
-0.125008986764
 31
0.0
1001
TCAD
1000
TCW_CUSTOM_DATA
1002
{
1000
#$AUX@_ToolInfo Properties
1070
           8
1000
Insert^JLine^JPerpendicular@Line Perpendicular
1002
}
  0
LINE
  5
4F
100
AcDbEntity
  8
Exterior View
370
           0
  6
Continuous
 62
           7
100
AcDbLine
 10
0.96875
 20
-0.0
 30
0.0
 11
0.96875
 21
-0.125008986764
 31
0.0
1001
TCAD
1000
TCW_CUSTOM_DATA
1002
{
1000
#$AUX@_ToolInfo Properties
1070
           8
1000
Insert^JLine^JPerpendicular@Line Perpendicular
1002
}
  0
CIRCLE
  5
50
100
AcDbEntity
  8
Exterior View
370
           0
  6
Continuous
 62
           7
100
AcDbCircle
 10
0.562507606223
 20
-3.296008986764
 30
0.0
 40
0.09375
1001
TCAD
1000
TCW_CUSTOM_DATA
1002
{
1000
#$AUX@_ToolInfo Properties
1070
           8
1000
Insert^JCircle^JCenterAndPoint@Circle CenterAndPoint
1002
}
  0
CIRCLE
  5
51
100
AcDbEntity
  8
Exterior View
370
           0
  6
Continuous
 62
           7
100
AcDbCircle
 10
0.562503803111
 20
-4.464508986764
 30
0.0
 40
0.09375
1001
TCAD
1000
TCW_CUSTOM_DATA
1002
{
1000
#$AUX@_ToolInfo Properties
1070
           8
1000
Insert^JCircle^JCenterAndPoint@Circle CenterAndPoint
1002
}
  0
CIRCLE
  5
52
100
AcDbEntity
  8
Exterior View
370
           0
  6
Continuous
 62
           7
100
AcDbCircle
 10
0.562503803111
 20
-5.981508986764
 30
0.0
 40
0.09375
1001
TCAD
1000
TCW_CUSTOM_DATA
1002
{
1000
#$AUX@_ToolInfo Properties
1070
           8
1000
Insert^JCircle^JCenterAndPoint@Circle CenterAndPoint
1002
}
  0
CIRCLE
  5
53
100
AcDbEntity
  8
Exterior View
370
           0
  6
Continuous
 62
           7
100
AcDbCircle
 10
0.562499640904
 20
-7.992508986764
 30
0.0
 40
0.09375
1001
TCAD
1000
TCW_CUSTOM_DATA
1002
{
1000
#$AUX@_ToolInfo Properties
1070
           8
1000
Insert^JCircle^JCenterAndPoint@Circle CenterAndPoint
1002
}
  0
LINE
  5
54
100
AcDbEntity
  8
Exterior View
370
           0
  6
Continuous
 62
           7
100
AcDbLine
 10
-1.25
 20
-14.175371367961
 30
0.0
 11
2.375
 21
-14.175371367961
 31
0.0
1001
TCAD
1000
TCW_CUSTOM_DATA
1002
{
1000
#$AUX@_ToolInfo Properties
1070
           8
1000
Insert^JLine^JPerpendicular@Line Perpendicular
1002
}
  0
LINE
  5
55
100
AcDbEntity
  8
Exterior View
370
           0
  6
Continuous
 62
           7
100
AcDbLine
 10
-0.4375
 20
-14.175371367961
 30
0.0
 11
-0.4375
 21
-13.925371367961
 31
0.0
1001
TCAD
1000
TCW_CUSTOM_DATA
1002
{
1000
#$AUX@_ToolInfo Properties
1070
           8
1000
Insert^JLine^JSingle@Line Single
1002
}
  0
LINE
  5
56
100
AcDbEntity
  8
Exterior View
370
           0
  6
Continuous
 62
           7
100
AcDbLine
 10
1.5625
 20
-13.925371367961
 30
0.0
 11
1.5625
 21
-14.175371367961
 31
0.0
1001
TCAD
1000
TCW_CUSTOM_DATA
1002
{
1000
#$AUX@_ToolInfo Properties
1070
           8
1000
Insert^JLine^JSingle@Line Single
1002
}
  0
LINE
  5
57
100
AcDbEntity
  8
Exterior View
370
           0
  6
Continuous
 62
           7
100
AcDbLine
 10
-1.25
 20
-13.925371367961
 30
0.0
 11
2.375
 21
-13.925371367961
 31
0.0
1001
TCAD
1000
TCW_CUSTOM_DATA
1002
{
1000
#$AUX@_ToolInfo Properties
1070
           8
1000
Insert^JLine^JSingle@Line Single
1002
}
  0
LINE
  5
58
100
AcDbEntity
  8
Exterior View
370
           0
  6
Continuous
 62
           7
100
AcDbLine
 10
1.4375
 20
-14.156007433367
 30
0.0
 11
-0.3125
 21
-14.007460064946
 31
0.0
1001
TCAD
1000
TCW_CUSTOM_DATA
1002
{
1000
#$AUX@_ToolInfo Properties
1070
           8
1000
Insert^JLine^JSingle@Line Single
1002
}
  0
LINE
  5
59
100
AcDbEntity
  8
Exterior View
370
           0
  6
Continuous
 62
           7
100
AcDbLine
 10
-0.3125
 20
-13.944735302554
 30
0.0
 11
1.4375
 21
-14.093282670975
 31
0.0
1001
TCAD
1000
TCW_CUSTOM_DATA
1002
{
1000
#$AUX@_ToolInfo Properties
1070
           8
1000
Insert^JLine^JSingle@Line Single
1002
}
  0
LINE
  5
5A
100
AcDbEntity
  8
Exterior View
370
           0
  6
Continuous
 62
           7
100
AcDbLine
 10
-0.3125
 20
-14.175371367961
 30
0.0
 11
-0.3125
 21
-13.925371367961
 31
0.0
1001
TCAD
1000
TCW_CUSTOM_DATA
1002
{
1000
#$AUX@_ToolInfo Properties
1070
           8
1000
Insert^JLine^JPerpendicular@Line Perpendicular
1002
}
  0
LINE
  5
5B
100
AcDbEntity
  8
Exterior View
370
           0
  6
Continuous
 62
           7
100
AcDbLine
 10
1.4375
 20
-14.175371367961
 30
0.0
 11
1.4375
 21
-13.925371367961
 31
0.0
1001
TCAD
1000
TCW_CUSTOM_DATA
1002
{
1000
#$AUX@_ToolInfo Properties
1070
           8
1000
Insert^JLine^JPerpendicular@Line Perpendicular
1002
}
  0
ELLIPSE
  5
5C
100
AcDbEntity
  8
Exterior View
370
           0
  6
Continuous
 62
           7
100
AcDbEllipse
 10
-6.598738716421
 20
-17.262463483748
 30
0.0
 11
11.74378658513324
 21
0.0
 31
0.0
210
0.0
220
0.0
230
1.0
 40
0.887856574859
 41
0.4053149824369196
 42
0.5360965805662273
  0
ELLIPSE
  5
5D
100
AcDbEntity
  8
Exterior View
370
           0
  6
Continuous
 62
           7
100
AcDbEllipse
 10
-0.170887149218
 20
-9.392978709813
 30
0.0
 11
0.0000000000000001
 21
-2.3309697230490274
 31
0.0
210
0.0
220
0.0
230
1.0
 40
0.97777254852
 41
3.1415926535897931
 42
4.7123889803846897
  0
ELLIPSE
  5
5E
100
AcDbEntity
  8
Exterior View
370
           0
  6
Continuous
 62
           7
100
AcDbEllipse
 10
0.08654312469
 20
-9.392978709813
 30
0.0
 11
2.5365884805358903
 21
0.0
 31
0.0
210
0.0
220
0.0
230
1.0
 40
0.856080560458
 41
3.1415926535897931
 42
3.5567774092706212
  0
ELLIPSE
  5
5F
100
AcDbEntity
  8
Exterior View
370
           0
  6
Continuous
 62
           7
100
AcDbEllipse
 10
1.038247968851
 20
-9.392978709813
 30
0.0
 11
2.5368167831723101
 21
0.0
 31
0.0
210
0.0
220
0.0
230
1.0
 40
0.856003516877
 41
-0.4151847556807398
 42
-0.0195631445823936
  0
ELLIPSE
  5
60
100
AcDbEntity
  8
Exterior View
370
           0
  6
Continuous
 62
           7
100
AcDbEllipse
 10
4.938282384539
 20
-10.974395272
 30
0.0
 11
0.0000000000000001
 21
-1.7490939621949373
 31
0.0
210
0.0
220
0.0
230
1.0
 40
0.986408494714
 41
4.2972042247039539
 42
5.2949065483907294
  0
ELLIPSE
  5
61
100
AcDbEntity
  8
Exterior View
370
           0
  6
Continuous
 62
           7
100
AcDbEllipse
 10
3.690343704936
 20
-7.002789241597
 30
0.0
 11
0.0000000000000001
 21
-2.4051800179802769
 31
0.0
210
0.0
220
0.0
230
1.0
 40
0.995860810564
 41
-1.5460441362022381
 42
-0.0606181685241132
  0
LINE
  5
62
100
AcDbEntity
  8
Exterior View
370
           0
  6
Continuous
 62
           7
100
AcDbLine
 10
-0.452500017792
 20
-10.065371367961
 30
0.0
 11
1.5775
 21
-10.065371367961
 31
0.0
  0
LINE
  5
63
100
AcDbEntity
  8
Hidden
370
           0
  6
HIDDEN
 62
           7
 48
0.20000000298
100
AcDbLine
 10
1.8525
 20
-10.785371367961
 30
0.0
 11
1.5775
 21
-10.785371367961
 31
0.0
  0
LINE
  5
64
100
AcDbEntity
  8
Exterior View
370
           0
  6
Continuous
 62
           7
100
AcDbLine
 10
1.5775
 20
-10.785371367961
 30
0.0
 11
-0.452499976617
 21
-10.785371367961
 31
0.0
  0
LINE
  5
65
100
AcDbEntity
  8
Hidden
370
           0
  6
HIDDEN
 62
           7
 48
0.20000000298
100
AcDbLine
 10
-0.452499976617
 20
-10.785371367961
 30
0.0
 11
-0.7275
 21
-10.785371367961
 31
0.0
  0
LINE
  5
66
100
AcDbEntity
  8
Exterior View
370
           0
  6
Continuous
 62
           7
100
AcDbLine
 10
-0.198043544458
 20
-8.166008986764
 30
0.0
 11
1.323043544458
 21
-8.166008986764
 31
0.0
1001
TCAD
1000
TCW_CUSTOM_DATA
1002
{
1000
#$AUX@_ToolInfo Properties
1070
           8
1000
Insert^JLine^JPerpendicular@Line Perpendicular
1002
}
  0
LINE
  5
67
100
AcDbEntity
  8
Exterior View
370
           0
  6
Continuous
 62
           7
100
AcDbLine
 10
-0.206121928065
 20
-8.494008986764
 30
0.0
 11
1.331121928065
 21
-8.494008986764
 31
0.0
1001
TCAD
1000
TCW_CUSTOM_DATA
1002
{
1000
#$AUX@_ToolInfo Properties
1070
           8
1000
Insert^JLine^JPerpendicular@Line Perpendicular
1002
}
  0
LINE
  5
68
100
AcDbEntity
  8
Exterior View
370
           0
  6
Continuous
 62
           7
100
AcDbLine
 10
-0.213732356524
 20
-8.803008986764
 30
0.0
 11
1.338732356524
 21
-8.803008986764
 31
0.0
1001
TCAD
1000
TCW_CUSTOM_DATA
1002
{
1000
#$AUX@_ToolInfo Properties
1070
           8
1000
Insert^JLine^JPerpendicular@Line Perpendicular
1002
}
  0
LINE
  5
69
100
AcDbEntity
  8
Exterior View
370
           0
  6
Continuous
 62
           7
100
AcDbLine
 10
-0.220899459053
 20
-9.094008986764
 30
0.0
 11
1.345899459053
 21
-9.094008986764
 31
0.0
1001
TCAD
1000
TCW_CUSTOM_DATA
1002
{
1000
#$AUX@_ToolInfo Properties
1070
           8
1000
Insert^JLine^JPerpendicular@Line Perpendicular
1002
}
  0
ARC
  5
6A
100
AcDbEntity
  8
Exterior View
370
           0
  6
Continuous
 62
           7
100
AcDbCircle
 10
0.5625
 20
-5.750008986764
 30
0.0
 40
3.568537431592
100
AcDbArc
 50
-102.736828803321
 51
-77.263171196679
  0
POINT
  5
6B
100
AcDbEntity
  8
Exterior View
  6
Continuous
 62
           7
100
AcDbPoint
 10
1.288647310776
 20
-16.306285568532
 30
0.0
1001
TCAD
1000
TCW_CUSTOM_DATA
1002
{
1000
#$AUX@_ToolInfo Properties
1070
           8
1000
Insert^JPoint^JCross@Point Cross
1002
}
1000
TC25ExternalObject
1002
{
1000
TCW30POINT
1000

1070
           0
1071
        0
1040
1.0
1040
0.0
1000
Continuous
1000
Exterior View
1070
          21
1071
        1
1071
      242
1010
1.288647310776
1020
-16.306285568532
1030
0.0
1070
           3
1071
-2147483645
1070
           1
1000
#$AUX@_ToolInfo Properties
1070
           8
1000
Insert^JPoint^JCross@Point Cross
1000
$POINTSIZE
1070
           5
1040
0.25
1000
$POINTTYPE
1070
          18
1070
           3
1000
ExplodeScale
1070
           5
1040
1.0
1002
}
  0
ELLIPSE
  5
6C
100
AcDbEntity
  8
Exterior View
370
           0
  6
Continuous
 62
           7
 48
0.20000000298
100
AcDbEllipse
 10
1.288647310776
 20
-16.306285568532
 30
0.0
 11
0.0284621568637527
 21
-0.121716496937314
 31
0.0
210
0.0
220
0.0
230
1.0
 40
0.965925826289
 41
3.0255216105296059
 42
9.3087069177091912
1001
TCAD
1000
TCW_CUSTOM_DATA
1002
{
1000
#$AUX@_ToolInfo Properties
1070
           8
1000
Insert^JCircle^JCenterAndPoint@Circle CenterAndPoint
1002
}
  0
LINE
  5
6D
100
AcDbEntity
  8
Hidden
370
           0
  6
HIDDEN
 62
           7
 48
0.20000000298
100
AcDbLine
 10
0.889353556974
 20
-16.633029365918
 30
0.0
 11
0.823406524347
 21
-16.074663028378
 31
0.0
1001
TCAD
1000
TCW_CUSTOM_DATA
1002
{
1000
#$AUX@_ToolInfo Properties
1070
           8
1000
Insert^JLine^JSingle@Line Single
1002
}
  0
LINE
  5
6E
100
AcDbEntity
  8
Hidden
370
           0
  6
HIDDEN
 62
           7
 48
0.20000000298
100
AcDbLine
 10
1.32162082709
 20
-16.585468737302
 30
0.0
 11
0.889353556974
 21
-16.633029365918
 31
0.0
1001
TCAD
1000
TCW_CUSTOM_DATA
1002
{
1000
#$AUX@_ToolInfo Properties
1070
           8
1000
Insert^JLine^JSingle@Line Single
1002
}
  0
ELLIPSE
  5
6F
100
AcDbEntity
  8
Hidden
370
           0
  6
HIDDEN
 62
           7
 48
0.20000000298
100
AcDbEllipse
 10
1.433799553033
 20
-15.913233568486
 30
0.0
 11
0.0113848627449423
 21
-0.048686598775084
 31
0.0
210
0.0
220
0.0
230
1.0
 40
0.965925826288
 41
1.2801923585470909
 42
7.5633776657266774
1001
TCAD
1000
TCW_CUSTOM_DATA
1002
{
1000
#$AUX@_ToolInfo Properties
1070
           8
1000
Insert^JCircle^JCenterAndPoint@Circle CenterAndPoint
1002
}
  0
ELLIPSE
  5
70
100
AcDbEntity
  8
Hidden
370
           0
  6
HIDDEN
 62
           7
 48
0.20000000298
100
AcDbEllipse
 10
1.433799553033
 20
-15.913233568486
 30
0.0
 11
0.0192119558827462
 21
-0.0821586354328083
 31
0.0
210
0.0
220
0.0
230
1.0
 40
0.965925826288
 41
1.4547252837390132
 42
3.8672521197179943
1001
TCAD
1000
TCW_CUSTOM_DATA
1002
{
1000
#$AUX@_ToolInfo Properties
1070
           8
1000
Insert^JArc^JCenterAndPoint@Arc CenterAndPoint
1002
}
  0
LINE
  5
71
100
AcDbEntity
  8
Hidden
370
           0
  6
HIDDEN
 62
           7
 48
0.20000000298
100
AcDbLine
 10
1.51484966618
 20
-15.90431595062
 30
0.0
 11
1.558814354598
 21
-16.276560175647
 31
0.0
1001
TCAD
1000
TCW_CUSTOM_DATA
1002
{
1000
#$AUX@_ToolInfo Properties
1070
           8
1000
Insert^JLine^JSingle@Line Single
1002
}
  0
ELLIPSE
  5
72
100
AcDbEntity
  8
Hidden
370
           0
  6
HIDDEN
 62
           7
 48
0.20000000298
100
AcDbEllipse
 10
1.288647310776
 20
-16.306285568532
 30
0.0
 11
0.06403985294231
 21
-0.2738621181091476
 31
0.0
210
0.0
220
0.0
230
1.0
 40
0.965925826289
 41
-0.1160710430559846
 42
3.0255214747776815
  0
LINE
  5
73
100
AcDbEntity
  8
Hidden
370
           0
  6
HIDDEN
 62
           7
 48
0.20000000298
100
AcDbLine
 10
0.823406524347
 20
-16.074663028378
 30
0.0
 11
1.255673831139
 21
-16.027102395726
 31
0.0
1001
TCAD
1000
TCW_CUSTOM_DATA
1002
{
1000
#$AUX@_ToolInfo Properties
1070
           8
1000
Insert^JLine^JPerpendicular@Line Perpendicular
1002
}
  0
LINE
  5
74
100
AcDbEntity
  8
Hidden
370
           0
  6
HIDDEN
 62
           7
 48
0.20000000298
100
AcDbLine
 10
1.366762801771
 20
-15.864088987414
 30
0.0
 11
1.255673831139
 21
-16.027102395726
 31
0.0
1001
TCAD
1000
TCW_CUSTOM_DATA
1002
{
1000
#$AUX@_ToolInfo Properties
1070
           8
1000
Insert^JLine^JTanFromArc@Line TanFromArc
1002
}
  0
ELLIPSE
  5
75
100
AcDbEntity
  8
Exterior View
370
           0
  6
Continuous
 62
           7
100
AcDbEllipse
 10
1.096732623968
 20
-17.14441104883
 30
0.0
 11
0.0782709313732015
 21
-0.334720366577983
 31
0.0
210
0.0
220
0.0
230
1.0
 40
0.965925826289
 41
4.5963178442729218
 42
7.7379105909206727
  0
ELLIPSE
  5
76
100
AcDbEntity
  8
Exterior View
370
           0
  6
Continuous
 62
           7
100
AcDbEllipse
 10
1.303198822906
 20
-17.090270946723
 30
0.0
 11
0.0284621568634203
 21
-0.1217164969373939
 31
0.0
210
0.0
220
0.0
230
1.0
 40
0.965925826289
 41
1.4547252837373852
 42
3.0255216105323006
1001
TCAD
1000
TCW_CUSTOM_DATA
1002
{
1000
#$AUX@_ToolInfo Properties
1070
           8
1000
Insert^JArc^JTanToTwoEntities@Arc TanToTwoEntities
1002
}
  0
ELLIPSE
  5
77
100
AcDbEntity
  8
Exterior View
370
           0
  6
Continuous
 62
           7
100
AcDbEllipse
 10
0.88293897696
 20
-17.136510446767
 30
0.0
 11
0.0284621568635866
 21
-0.1217164969373508
 31
0.0
210
0.0
220
0.0
230
1.0
 40
0.965925826289
 41
3.0255216105309453
 42
4.5963179373258409
1001
TCAD
1000
TCW_CUSTOM_DATA
1002
{
1000
#$AUX@_ToolInfo Properties
1070
           8
1000
Insert^JArc^JTanToTwoEntities@Arc TanToTwoEntities
1002
}
  0
LINE
  5
78
100
AcDbEntity
  8
Exterior View
370
           0
  6
Continuous
 62
           7
100
AcDbLine
 10
1.423273062752
 20
-17.077059645308
 30
0.0
 11
1.426936788639
 21
-17.108080013082
 31
0.0
  0
LINE
  5
79
100
AcDbEntity
  8
Exterior View
370
           0
  6
Continuous
 62
           7
100
AcDbLine
 10
0.868284079032
 20
-17.012429038621
 30
0.0
 11
1.288543930345
 21
-16.966189537987
 31
0.0
1001
TCAD
1000
TCW_CUSTOM_DATA
1002
{
1000
#$AUX@_ToolInfo Properties
1070
           8
1000
Insert^JLine^JSingle@Line Single
1002
}
  0
LINE
  5
7A
100
AcDbEntity
  8
Exterior View
370
           0
  6
Continuous
 62
           7
100
AcDbLine
 10
1.169752428938
 20
-16.732794975891
 30
0.0
 11
1.198488245492
 21
-16.976098002676
 31
0.0
  0
LINE
  5
7B
100
AcDbEntity
  8
Exterior View
370
           0
  6
Continuous
 62
           7
100
AcDbLine
 10
0.929212581818
 20
-16.755903913357
 30
0.0
 11
0.958339762095
 21
-17.002520574129
 31
0.0
  0
LINE
  5
7C
100
AcDbEntity
  8
Exterior View
370
           0
  6
Continuous
 62
           7
100
AcDbLine
 10
0.766528455546
 20
-17.180742052825
 30
0.0
 11
0.762864735262
 21
-17.149721732493
 31
0.0
1001
TCAD
1000
TCW_CUSTOM_DATA
1002
{
1000
#$AUX@_ToolInfo Properties
1070
           8
1000
Insert^JLine^JSingle@Line Single
1002
}
  0
POINT
  5
7D
100
AcDbEntity
  8
Exterior View
  6
Continuous
 62
           7
100
AcDbPoint
 10
2.154131552628
 20
-16.084380922348
 30
0.0
1001
TCAD
1000
TCW_CUSTOM_DATA
1002
{
1000
#$AUX@_ToolInfo Properties
1070
           8
1000
Insert^JPoint^JCross@Point Cross
1002
}
1000
TC25ExternalObject
1002
{
1000
TCW30POINT
1000

1070
           0
1071
        0
1040
1.0
1040
0.0
1000
Continuous
1000
Exterior View
1070
          21
1071
        1
1071
      242
1010
2.154131552628
1020
-16.084380922348
1030
0.0
1070
           3
1071
-2147483645
1070
           1
1000
#$AUX@_ToolInfo Properties
1070
           8
1000
Insert^JPoint^JCross@Point Cross
1000
$POINTSIZE
1070
           5
1040
0.25
1000
$POINTTYPE
1070
          18
1070
           3
1000
ExplodeScale
1070
           5
1040
1.0
1002
}
  0
ELLIPSE
  5
7E
100
AcDbEntity
  8
Exterior View
370
           0
  6
Continuous
 62
           7
 48
0.20000000298
100
AcDbEllipse
 10
2.154131552628
 20
-16.084380922348
 30
0.0
 11
0.0531818444152553
 21
-0.1131224620681278
 31
0.0
210
0.0
220
0.0
230
1.0
 40
0.965925826289
 41
3.0255216105310274
 42
9.3087069177106141
1001
TCAD
1000
TCW_CUSTOM_DATA
1002
{
1000
#$AUX@_ToolInfo Properties
1070
           8
1000
Insert^JCircle^JCenterAndPoint@Circle CenterAndPoint
1002
}
  0
LINE
  5
7F
100
AcDbEntity
  8
Hidden
370
           0
  6
HIDDEN
 62
           7
 48
0.20000000298
100
AcDbLine
 10
1.831623079511
 20
-16.487103277971
 30
0.0
 11
1.650859791188
 21
-15.954706234779
 31
0.0
1001
TCAD
1000
TCW_CUSTOM_DATA
1002
{
1000
#$AUX@_ToolInfo Properties
1070
           8
1000
Insert^JLine^JSingle@Line Single
1002
}
  0
LINE
  5
80
100
AcDbEntity
  8
Hidden
370
           0
  6
HIDDEN
 62
           7
 48
0.20000000298
100
AcDbLine
 10
2.24451319679
 20
-16.350579443944
 30
0.0
 11
1.831623079511
 21
-16.487103277971
 31
0.0
1001
TCAD
1000
TCW_CUSTOM_DATA
1002
{
1000
#$AUX@_ToolInfo Properties
1070
           8
1000
Insert^JLine^JSingle@Line Single
1002
}
  0
ELLIPSE
  5
81
100
AcDbEntity
  8
Hidden
370
           0
  6
HIDDEN
 62
           7
 48
0.20000000298
100
AcDbEllipse
 10
2.214262120056
 20
-15.669720382833
 30
0.0
 11
0.0212727377656471
 21
-0.0452489848274898
 31
0.0
210
0.0
220
0.0
230
1.0
 40
0.965925826289
 41
1.2801923585471235
 42
7.5633776657267093
1001
TCAD
1000
TCW_CUSTOM_DATA
1002
{
1000
#$AUX@_ToolInfo Properties
1070
           8
1000
Insert^JCircle^JCenterAndPoint@Circle CenterAndPoint
1002
}
  0
ELLIPSE
  5
82
100
AcDbEntity
  8
Hidden
370
           0
  6
HIDDEN
 62
           7
 48
0.20000000298
100
AcDbEllipse
 10
2.214262120056
 20
-15.669720382833
 30
0.0
 11
0.0358977449801099
 21
-0.0763576618961226
 31
0.0
210
0.0
220
0.0
230
1.0
 40
0.965925826288
 41
1.4547252837393625
 42
3.8672521197184411
1001
TCAD
1000
TCW_CUSTOM_DATA
1002
{
1000
#$AUX@_ToolInfo Properties
1070
           8
1000
Insert^JArc^JCenterAndPoint@Arc CenterAndPoint
1002
}
  0
LINE
  5
83
100
AcDbEntity
  8
Hidden
370
           0
  6
HIDDEN
 62
           7
 48
0.20000000298
100
AcDbLine
 10
2.291679017045
 20
-15.644122163953
 30
0.0
 11
2.412187875928
 21
-15.999053526081
 31
0.0
1001
TCAD
1000
TCW_CUSTOM_DATA
1002
{
1000
#$AUX@_ToolInfo Properties
1070
           8
1000
Insert^JLine^JSingle@Line Single
1002
}
  0
ELLIPSE
  5
84
100
AcDbEntity
  8
Hidden
370
           0
  6
HIDDEN
 62
           7
 48
0.20000000298
100
AcDbEllipse
 10
2.154131552628
 20
-16.084380922348
 30
0.0
 11
0.1196591499336598
 21
-0.2545255396535259
 31
0.0
210
0.0
220
0.0
230
1.0
 40
0.965925826289
 41
-0.1160710430562373
 42
3.0255214747774524
  0
LINE
  5
85
100
AcDbEntity
  8
Hidden
370
           0
  6
HIDDEN
 62
           7
 48
0.20000000298
100
AcDbLine
 10
1.650859791188
 20
-15.954706234779
 30
0.0
 11
2.063749943499
 21
-15.818182389168
 31
0.0
1001
TCAD
1000
TCW_CUSTOM_DATA
1002
{
1000
#$AUX@_ToolInfo Properties
1070
           8
1000
Insert^JLine^JPerpendicular@Line Perpendicular
1002
}
  0
LINE
  5
86
100
AcDbEntity
  8
Hidden
370
           0
  6
HIDDEN
 62
           7
 48
0.20000000298
100
AcDbLine
 10
2.138461881459
 20
-15.635611150987
 30
0.0
 11
2.063749943499
 21
-15.818182389168
 31
0.0
1001
TCAD
1000
TCW_CUSTOM_DATA
1002
{
1000
#$AUX@_ToolInfo Properties
1070
           8
1000
Insert^JLine^JTanFromArc@Line TanFromArc
1002
}
  0
ELLIPSE
  5
87
100
AcDbEntity
  8
Exterior View
370
           0
  6
Continuous
 62
           7
100
AcDbEllipse
 10
2.140935544675
 20
-16.944096824899
 30
0.0
 11
0.1462500721404469
 21
-0.3110867706879371
 31
0.0
210
0.0
220
0.0
230
1.0
 40
0.965925826289
 41
4.5963178442727521
 42
7.7379105909204293
  0
ELLIPSE
  5
88
100
AcDbEntity
  8
Exterior View
370
           0
  6
Continuous
 62
           7
100
AcDbEllipse
 10
2.331603613446
 20
-16.848153458737
 30
0.0
 11
0.0531818444149775
 21
-0.1131224620682579
 31
0.0
210
0.0
220
0.0
230
1.0
 40
0.965925826289
 41
1.454725283738457
 42
3.0255216105333629
1001
TCAD
1000
TCW_CUSTOM_DATA
1002
{
1000
#$AUX@_ToolInfo Properties
1070
           8
1000
Insert^JArc^JTanToTwoEntities@Arc TanToTwoEntities
1002
}
  0
ELLIPSE
  5
89
100
AcDbEntity
  8
Exterior View
370
           0
  6
Continuous
 62
           7
100
AcDbEllipse
 10
1.930182666091
 20
-16.980884964041
 30
0.0
 11
0.053181844415207
 21
-0.1131224620681352
 31
0.0
210
0.0
220
0.0
230
1.0
 40
0.965925826289
 41
3.0255216105313609
 42
4.5963179373262584
1001
TCAD
1000
TCW_CUSTOM_DATA
1002
{
1000
#$AUX@_ToolInfo Properties
1070
           8
1000
Insert^JArc^JTanToTwoEntities@Arc TanToTwoEntities
1002
}
  0
LINE
  5
8A
100
AcDbEntity
  8
Hidden
370
           0
  6
HIDDEN
 62
           7
 48
0.20000000298
100
AcDbLine
 10
2.446295307611
 20
-16.810230156548
 30
0.0
 11
2.456337717597
 21
-16.839807785018
 31
0.0
  0
LINE
  5
8B
100
AcDbEntity
  8
Exterior View
370
           0
  6
Continuous
 62
           7
100
AcDbLine
 10
1.890013044755
 20
-16.862574510563
 30
0.0
 11
2.291433997236
 21
-16.729843003564
 31
0.0
1001
TCAD
1000
TCW_CUSTOM_DATA
1002
{
1000
#$AUX@_ToolInfo Properties
1070
           8
1000
Insert^JLine^JSingle@Line Single
1002
}
  0
LINE
  5
8C
100
AcDbEntity
  8
Exterior View
370
           0
  6
Continuous
 62
           7
100
AcDbLine
 10
2.125939668224
 20
-16.524208358348
 30
0.0
 11
2.205415219385
 21
-16.758285470116
 31
0.0
  0
LINE
  5
8D
100
AcDbEntity
  8
Exterior View
370
           0
  6
Continuous
 62
           7
100
AcDbLine
 10
1.893841489194
 20
-16.592059165823
 30
0.0
 11
1.976031820897
 21
-16.834132044576
 31
0.0
  0
LINE
  5
8E
100
AcDbEntity
  8
Exterior View
370
           0
  6
Continuous
 62
           7
100
AcDbLine
 10
1.825533361474
 20
-17.048385834504
 30
0.0
 11
1.815490966847
 21
-17.018808251271
 31
0.0
1001
TCAD
1000
TCW_CUSTOM_DATA
1002
{
1000
#$AUX@_ToolInfo Properties
1070
           8
1000
Insert^JLine^JSingle@Line Single
1002
}
  0
POINT
  5
8F
100
AcDbEntity
  8
Exterior View
  6
Continuous
 62
           7
100
AcDbPoint
 10
-0.163647310776
 20
-16.306285568532
 30
0.0
1001
TCAD
1000
TCW_CUSTOM_DATA
1002
{
1000
#$AUX@_ToolInfo Properties
1070
           8
1000
Insert^JPoint^JCross@Point Cross
1002
}
1000
TC25ExternalObject
1002
{
1000
TCW30POINT
1000

1070
           0
1071
        0
1040
1.0
1040
0.0
1000
Continuous
1000
Exterior View
1070
          21
1071
        1
1071
      242
1010
-0.163647310776
1020
-16.306285568532
1030
0.0
1070
           3
1071
-2147483645
1070
           1
1000
#$AUX@_ToolInfo Properties
1070
           8
1000
Insert^JPoint^JCross@Point Cross
1000
$POINTSIZE
1070
           5
1040
0.25
1000
$POINTTYPE
1070
          18
1070
           3
1000
ExplodeScale
1070
           5
1040
1.0
1002
}
  0
ELLIPSE
  5
90
100
AcDbEntity
  8
Exterior View
370
           0
  6
Continuous
 62
           7
 48
0.20000000298
100
AcDbEllipse
 10
-0.163647310776
 20
-16.306285568532
 30
0.0
 11
0.0284621568637527
 21
0.121716496937314
 31
0.0
210
0.0
220
0.0
230
1.0
 40
0.965925826289
 41
0.1160710430601873
 42
6.3992563502397735
1001
TCAD
1000
TCW_CUSTOM_DATA
1002
{
1000
#$AUX@_ToolInfo Properties
1070
           8
1000
Insert^JCircle^JCenterAndPoint@Circle CenterAndPoint
1002
}
  0
LINE
  5
91
100
AcDbEntity
  8
Hidden
370
           0
  6
HIDDEN
 62
           7
 48
0.20000000298
100
AcDbLine
 10
0.235646443026
 20
-16.633029365918
 30
0.0
 11
0.301593475653
 21
-16.074663028378
 31
0.0
1001
TCAD
1000
TCW_CUSTOM_DATA
1002
{
1000
#$AUX@_ToolInfo Properties
1070
           8
1000
Insert^JLine^JSingle@Line Single
1002
}
  0
LINE
  5
92
100
AcDbEntity
  8
Hidden
370
           0
  6
HIDDEN
 62
           7
 48
0.20000000298
100
AcDbLine
 10
-0.19662082709
 20
-16.585468737302
 30
0.0
 11
0.235646443026
 21
-16.633029365918
 31
0.0
1001
TCAD
1000
TCW_CUSTOM_DATA
1002
{
1000
#$AUX@_ToolInfo Properties
1070
           8
1000
Insert^JLine^JSingle@Line Single
1002
}
  0
ELLIPSE
  5
93
100
AcDbEntity
  8
Hidden
370
           0
  6
HIDDEN
 62
           7
 48
0.20000000298
100
AcDbEllipse
 10
-0.308799553033
 20
-15.913233568486
 30
0.0
 11
0.0113848627449423
 21
0.048686598775084
 31
0.0
210
0.0
220
0.0
230
1.0
 40
0.965925826288
 41
1.8614002950427024
 42
8.1445856022222891
1001
TCAD
1000
TCW_CUSTOM_DATA
1002
{
1000
#$AUX@_ToolInfo Properties
1070
           8
1000
Insert^JCircle^JCenterAndPoint@Circle CenterAndPoint
1002
}
  0
ELLIPSE
  5
94
100
AcDbEntity
  8
Hidden
370
           0
  6
HIDDEN
 62
           7
 48
0.20000000298
100
AcDbEllipse
 10
-0.308799553033
 20
-15.913233568486
 30
0.0
 11
0.0192119558827462
 21
0.0821586354328083
 31
0.0
210
0.0
220
0.0
230
1.0
 40
0.965925826288
 41
-0.725659466128201
 42
1.6868673698507801
1001
TCAD
1000
TCW_CUSTOM_DATA
1002
{
1000
#$AUX@_ToolInfo Properties
1070
           8
1000
Insert^JArc^JCenterAndPoint@Arc CenterAndPoint
1002
}
  0
LINE
  5
95
100
AcDbEntity
  8
Hidden
370
           0
  6
HIDDEN
 62
           7
 48
0.20000000298
100
AcDbLine
 10
-0.38984966618
 20
-15.90431595062
 30
0.0
 11
-0.433814354598
 21
-16.276560175647
 31
0.0
1001
TCAD
1000
TCW_CUSTOM_DATA
1002
{
1000
#$AUX@_ToolInfo Properties
1070
           8
1000
Insert^JLine^JSingle@Line Single
1002
}
  0
ELLIPSE
  5
96
100
AcDbEntity
  8
Hidden
370
           0
  6
HIDDEN
 62
           7
 48
0.20000000298
100
AcDbEllipse
 10
-0.163647310776
 20
-16.306285568532
 30
0.0
 11
0.06403985294231
 21
0.2738621181091476
 31
0.0
210
0.0
220
0.0
230
1.0
 40
0.965925826289
 41
0.1160711788121118
 42
3.2576636966457775
  0
LINE
  5
97
100
AcDbEntity
  8
Hidden
370
           0
  6
HIDDEN
 62
           7
 48
0.20000000298
100
AcDbLine
 10
0.301593475653
 20
-16.074663028378
 30
0.0
 11
-0.130673831139
 21
-16.027102395726
 31
0.0
1001
TCAD
1000
TCW_CUSTOM_DATA
1002
{
1000
#$AUX@_ToolInfo Properties
1070
           8
1000
Insert^JLine^JPerpendicular@Line Perpendicular
1002
}
  0
LINE
  5
98
100
AcDbEntity
  8
Hidden
370
           0
  6
HIDDEN
 62
           7
 48
0.20000000298
100
AcDbLine
 10
-0.241762801771
 20
-15.864088987414
 30
0.0
 11
-0.130673831139
 21
-16.027102395726
 31
0.0
1001
TCAD
1000
TCW_CUSTOM_DATA
1002
{
1000
#$AUX@_ToolInfo Properties
1070
           8
1000
Insert^JLine^JTanFromArc@Line TanFromArc
1002
}
  0
ELLIPSE
  5
99
100
AcDbEntity
  8
Exterior View
370
           0
  6
Continuous
 62
           7
100
AcDbEllipse
 10
0.028267376032
 20
-17.14441104883
 30
0.0
 11
0.0782709313732014
 21
0.334720366577983
 31
0.0
210
0.0
220
0.0
230
1.0
 40
0.965925826289
 41
1.6868673698487071
 42
4.8284601164964576
  0
ELLIPSE
  5
9A
100
AcDbEntity
  8
Exterior View
370
           0
  6
Continuous
 62
           7
100
AcDbEllipse
 10
-0.178198822906
 20
-17.090270946723
 30
0.0
 11
0.0284621568634203
 21
0.1217164969373939
 31
0.0
210
0.0
220
0.0
230
1.0
 40
0.965925826289
 41
0.1160710430574925
 42
1.6868673698524081
1001
TCAD
1000
TCW_CUSTOM_DATA
1002
{
1000
#$AUX@_ToolInfo Properties
1070
           8
1000
Insert^JArc^JTanToTwoEntities@Arc TanToTwoEntities
1002
}
  0
ELLIPSE
  5
9B
100
AcDbEntity
  8
Exterior View
370
           0
  6
Continuous
 62
           7
100
AcDbEllipse
 10
0.24206102304
 20
-17.136510446767
 30
0.0
 11
0.0284621568635866
 21
0.1217164969373508
 31
0.0
210
0.0
220
0.0
230
1.0
 40
0.965925826289
 41
-1.4547252837360483
 42
0.1160710430588482
1001
TCAD
1000
TCW_CUSTOM_DATA
1002
{
1000
#$AUX@_ToolInfo Properties
1070
           8
1000
Insert^JArc^JTanToTwoEntities@Arc TanToTwoEntities
1002
}
  0
LINE
  5
9C
100
AcDbEntity
  8
Exterior View
370
           0
  6
Continuous
 62
           7
100
AcDbLine
 10
-0.298273062751
 20
-17.077059645308
 30
0.0
 11
-0.301936788639
 21
-17.108080013082
 31
0.0
  0
LINE
  5
9D
100
AcDbEntity
  8
Exterior View
370
           0
  6
Continuous
 62
           7
100
AcDbLine
 10
0.256715920968
 20
-17.012429038621
 30
0.0
 11
-0.163543930345
 21
-16.966189537987
 31
0.0
1001
TCAD
1000
TCW_CUSTOM_DATA
1002
{
1000
#$AUX@_ToolInfo Properties
1070
           8
1000
Insert^JLine^JSingle@Line Single
1002
}
  0
LINE
  5
9E
100
AcDbEntity
  8
Exterior View
370
           0
  6
Continuous
 62
           7
100
AcDbLine
 10
-0.044752428938
 20
-16.732794975891
 30
0.0
 11
-0.073488245492
 21
-16.976098002676
 31
0.0
  0
LINE
  5
9F
100
AcDbEntity
  8
Exterior View
370
           0
  6
Continuous
 62
           7
100
AcDbLine
 10
0.195787418182
 20
-16.755903913357
 30
0.0
 11
0.166660237905
 21
-17.002520574129
 31
0.0
  0
LINE
  5
A0
100
AcDbEntity
  8
Exterior View
370
           0
  6
Continuous
 62
           7
100
AcDbLine
 10
0.358471544454
 20
-17.180742052825
 30
0.0
 11
0.362135264738
 21
-17.149721732493
 31
0.0
1001
TCAD
1000
TCW_CUSTOM_DATA
1002
{
1000
#$AUX@_ToolInfo Properties
1070
           8
1000
Insert^JLine^JSingle@Line Single
1002
}
  0
POINT
  5
A1
100
AcDbEntity
  8
Exterior View
  6
Continuous
 62
           7
100
AcDbPoint
 10
-1.029131552628
 20
-16.084380922348
 30
0.0
1001
TCAD
1000
TCW_CUSTOM_DATA
1002
{
1000
#$AUX@_ToolInfo Properties
1070
           8
1000
Insert^JPoint^JCross@Point Cross
1002
}
1000
TC25ExternalObject
1002
{
1000
TCW30POINT
1000

1070
           0
1071
        0
1040
1.0
1040
0.0
1000
Continuous
1000
Exterior View
1070
          21
1071
        1
1071
      242
1010
-1.029131552628
1020
-16.084380922348
1030
0.0
1070
           3
1071
-2147483645
1070
           1
1000
#$AUX@_ToolInfo Properties
1070
           8
1000
Insert^JPoint^JCross@Point Cross
1000
$POINTSIZE
1070
           5
1040
0.25
1000
$POINTTYPE
1070
          18
1070
           3
1000
ExplodeScale
1070
           5
1040
1.0
1002
}
  0
ELLIPSE
  5
A2
100
AcDbEntity
  8
Exterior View
370
           0
  6
Continuous
 62
           7
 48
0.20000000298
100
AcDbEllipse
 10
-1.029131552628
 20
-16.084380922348
 30
0.0
 11
0.0531818444152553
 21
0.1131224620681278
 31
0.0
210
0.0
220
0.0
230
1.0
 40
0.965925826289
 41
0.1160710430587658
 42
6.3992563502383524
1001
TCAD
1000
TCW_CUSTOM_DATA
1002
{
1000
#$AUX@_ToolInfo Properties
1070
           8
1000
Insert^JCircle^JCenterAndPoint@Circle CenterAndPoint
1002
}
  0
LINE
  5
A3
100
AcDbEntity
  8
Hidden
370
           0
  6
HIDDEN
 62
           7
 48
0.20000000298
100
AcDbLine
 10
-0.706623079511
 20
-16.487103277971
 30
0.0
 11
-0.525859791188
 21
-15.954706234779
 31
0.0
1001
TCAD
1000
TCW_CUSTOM_DATA
1002
{
1000
#$AUX@_ToolInfo Properties
1070
           8
1000
Insert^JLine^JSingle@Line Single
1002
}
  0
LINE
  5
A4
100
AcDbEntity
  8
Hidden
370
           0
  6
HIDDEN
 62
           7
 48
0.20000000298
100
AcDbLine
 10
-1.11951319679
 20
-16.350579443944
 30
0.0
 11
-0.706623079511
 21
-16.487103277971
 31
0.0
1001
TCAD
1000
TCW_CUSTOM_DATA
1002
{
1000
#$AUX@_ToolInfo Properties
1070
           8
1000
Insert^JLine^JSingle@Line Single
1002
}
  0
ELLIPSE
  5
A5
100
AcDbEntity
  8
Hidden
370
           0
  6
HIDDEN
 62
           7
 48
0.20000000298
100
AcDbEllipse
 10
-1.089262120056
 20
-15.669720382833
 30
0.0
 11
0.0212727377656471
 21
0.0452489848274898
 31
0.0
210
0.0
220
0.0
230
1.0
 40
0.965925826289
 41
1.8614002950426698
 42
8.1445856022222554
1001
TCAD
1000
TCW_CUSTOM_DATA
1002
{
1000
#$AUX@_ToolInfo Properties
1070
           8
1000
Insert^JCircle^JCenterAndPoint@Circle CenterAndPoint
1002
}
  0
ELLIPSE
  5
A6
100
AcDbEntity
  8
Hidden
370
           0
  6
HIDDEN
 62
           7
 48
0.20000000298
100
AcDbEllipse
 10
-1.089262120056
 20
-15.669720382833
 30
0.0
 11
0.0358977449801099
 21
0.0763576618961227
 31
0.0
210
0.0
220
0.0
230
1.0
 40
0.965925826288
 41
-0.7256594661286482
 42
1.6868673698504306
1001
TCAD
1000
TCW_CUSTOM_DATA
1002
{
1000
#$AUX@_ToolInfo Properties
1070
           8
1000
Insert^JArc^JCenterAndPoint@Arc CenterAndPoint
1002
}
  0
LINE
  5
A7
100
AcDbEntity
  8
Hidden
370
           0
  6
HIDDEN
 62
           7
 48
0.20000000298
100
AcDbLine
 10
-1.166679017045
 20
-15.644122163953
 30
0.0
 11
-1.287187875928
 21
-15.999053526081
 31
0.0
1001
TCAD
1000
TCW_CUSTOM_DATA
1002
{
1000
#$AUX@_ToolInfo Properties
1070
           8
1000
Insert^JLine^JSingle@Line Single
1002
}
  0
ELLIPSE
  5
A8
100
AcDbEntity
  8
Hidden
370
           0
  6
HIDDEN
 62
           7
 48
0.20000000298
100
AcDbEllipse
 10
-1.029131552628
 20
-16.084380922348
 30
0.0
 11
0.1196591499336598
 21
0.2545255396535259
 31
0.0
210
0.0
220
0.0
230
1.0
 40
0.965925826289
 41
0.1160711788123406
 42
3.2576636966460302
  0
LINE
  5
A9
100
AcDbEntity
  8
Hidden
370
           0
  6
HIDDEN
 62
           7
 48
0.20000000298
100
AcDbLine
 10
-0.525859791188
 20
-15.954706234779
 30
0.0
 11
-0.938749943499
 21
-15.818182389168
 31
0.0
1001
TCAD
1000
TCW_CUSTOM_DATA
1002
{
1000
#$AUX@_ToolInfo Properties
1070
           8
1000
Insert^JLine^JPerpendicular@Line Perpendicular
1002
}
  0
LINE
  5
AA
100
AcDbEntity
  8
Hidden
370
           0
  6
HIDDEN
 62
           7
 48
0.20000000298
100
AcDbLine
 10
-1.013461881459
 20
-15.635611150987
 30
0.0
 11
-0.938749943499
 21
-15.818182389168
 31
0.0
1001
TCAD
1000
TCW_CUSTOM_DATA
1002
{
1000
#$AUX@_ToolInfo Properties
1070
           8
1000
Insert^JLine^JTanFromArc@Line TanFromArc
1002
}
  0
ELLIPSE
  5
AB
100
AcDbEntity
  8
Exterior View
370
           0
  6
Continuous
 62
           7
100
AcDbEllipse
 10
-1.015935544675
 20
-16.944096824899
 30
0.0
 11
0.1462500721404469
 21
0.3110867706879371
 31
0.0
210
0.0
220
0.0
230
1.0
 40
0.965925826289
 41
1.6868673698489505
 42
4.8284601164966272
  0
ELLIPSE
  5
AC
100
AcDbEntity
  8
Exterior View
370
           0
  6
Continuous
 62
           7
100
AcDbEllipse
 10
-1.206603613446
 20
-16.848153458737
 30
0.0
 11
0.0531818444149775
 21
0.1131224620682579
 31
0.0
210
0.0
220
0.0
230
1.0
 40
0.965925826289
 41
0.1160710430564305
 42
1.6868673698513363
1001
TCAD
1000
TCW_CUSTOM_DATA
1002
{
1000
#$AUX@_ToolInfo Properties
1070
           8
1000
Insert^JArc^JTanToTwoEntities@Arc TanToTwoEntities
1002
}
  0
ELLIPSE
  5
AD
100
AcDbEntity
  8
Exterior View
370
           0
  6
Continuous
 62
           7
100
AcDbEllipse
 10
-0.805182666091
 20
-16.980884964041
 30
0.0
 11
0.053181844415207
 21
0.1131224620681352
 31
0.0
210
0.0
220
0.0
230
1.0
 40
0.965925826289
 41
-1.4547252837364646
 42
0.1160710430584319
1001
TCAD
1000
TCW_CUSTOM_DATA
1002
{
1000
#$AUX@_ToolInfo Properties
1070
           8
1000
Insert^JArc^JTanToTwoEntities@Arc TanToTwoEntities
1002
}
  0
LINE
  5
AE
100
AcDbEntity
  8
Exterior View
370
           0
  6
Continuous
 62
           7
100
AcDbLine
 10
-1.321295307611
 20
-16.810230156548
 30
0.0
 11
-1.331337717597
 21
-16.839807785018
 31
0.0
  0
LINE
  5
AF
100
AcDbEntity
  8
Exterior View
370
           0
  6
Continuous
 62
           7
100
AcDbLine
 10
-0.765013044755
 20
-16.862574510563
 30
0.0
 11
-1.166433997236
 21
-16.729843003564
 31
0.0
1001
TCAD
1000
TCW_CUSTOM_DATA
1002
{
1000
#$AUX@_ToolInfo Properties
1070
           8
1000
Insert^JLine^JSingle@Line Single
1002
}
  0
LINE
  5
B0
100
AcDbEntity
  8
Exterior View
370
           0
  6
Continuous
 62
           7
100
AcDbLine
 10
-1.000939668224
 20
-16.524208358348
 30
0.0
 11
-1.080415219385
 21
-16.758285470116
 31
0.0
  0
LINE
  5
B1
100
AcDbEntity
  8
Exterior View
370
           0
  6
Continuous
 62
           7
100
AcDbLine
 10
-0.768841489194
 20
-16.592059165823
 30
0.0
 11
-0.851031820897
 21
-16.834132044576
 31
0.0
  0
LINE
  5
B2
100
AcDbEntity
  8
Exterior View
370
           0
  6
Continuous
 62
           7
100
AcDbLine
 10
-0.700533361474
 20
-17.048385834504
 30
0.0
 11
-0.690490966847
 21
-17.018808251271
 31
0.0
1001
TCAD
1000
TCW_CUSTOM_DATA
1002
{
1000
#$AUX@_ToolInfo Properties
1070
           8
1000
Insert^JLine^JSingle@Line Single
1002
}
  0
LINE
  5
B3
100
AcDbEntity
  8
Hidden
370
           0
  6
HIDDEN
 62
           7
 48
0.20000000298
100
AcDbLine
 10
1.856425667647
 20
-16.478902199077
 30
0.0
 11
1.896492315093
 21
-16.600076079676
 31
0.0
1001
TCAD
1000
TCW_CUSTOM_DATA
1002
{
1000
#$AUX@_ToolInfo Properties
1070
           8
1000
Insert^JLine^JPerpendicular@Line Perpendicular
1002
}
  0
LINE
  5
B4
100
AcDbEntity
  8
Hidden
370
           0
  6
HIDDEN
 62
           7
 48
0.20000000298
100
AcDbLine
 10
2.085873020777
 20
-16.40303447775
 30
0.0
 11
2.125939668224
 21
-16.524208358348
 31
0.0
1001
TCAD
1000
TCW_CUSTOM_DATA
1002
{
1000
#$AUX@_ToolInfo Properties
1070
           8
1000
Insert^JLine^JPerpendicular@Line Perpendicular
1002
}
  0
LINE
  5
B5
100
AcDbEntity
  8
Hidden
370
           0
  6
HIDDEN
 62
           7
 48
0.20000000298
100
AcDbLine
 10
0.915378143475
 20
-16.630165985368
 30
0.0
 11
0.929577487922
 21
-16.759220458369
 31
0.0
1001
TCAD
1000
TCW_CUSTOM_DATA
1002
{
1000
#$AUX@_ToolInfo Properties
1070
           8
1000
Insert^JLine^JPerpendicular@Line Perpendicular
1002
}
  0
LINE
  5
B6
100
AcDbEntity
  8
Hidden
370
           0
  6
HIDDEN
 62
           7
 48
0.20000000298
100
AcDbLine
 10
1.155553084491
 20
-16.60374050289
 30
0.0
 11
1.169752428938
 21
-16.732794975891
 31
0.0
1001
TCAD
1000
TCW_CUSTOM_DATA
1002
{
1000
#$AUX@_ToolInfo Properties
1070
           8
1000
Insert^JLine^JPerpendicular@Line Perpendicular
1002
}
  0
LINE
  5
B7
100
AcDbEntity
  8
Hidden
370
           0
  6
HIDDEN
 62
           7
 48
0.20000000298
100
AcDbLine
 10
-0.030553084491
 20
-16.60374050289
 30
0.0
 11
-0.044387522834
 21
-16.729478430879
 31
0.0
1001
TCAD
1000
TCW_CUSTOM_DATA
1002
{
1000
#$AUX@_ToolInfo Properties
1070
           8
1000
Insert^JLine^JPerpendicular@Line Perpendicular
1002
}
  0
LINE
  5
B8
100
AcDbEntity
  8
Hidden
370
           0
  6
HIDDEN
 62
           7
 48
0.20000000298
100
AcDbLine
 10
0.209621856525
 20
-16.630165985369
 30
0.0
 11
0.195787418182
 21
-16.755903913357
 31
0.0
1001
TCAD
1000
TCW_CUSTOM_DATA
1002
{
1000
#$AUX@_ToolInfo Properties
1070
           8
1000
Insert^JLine^JPerpendicular@Line Perpendicular
1002
}
  0
LINE
  5
B9
100
AcDbEntity
  8
Hidden
370
           0
  6
HIDDEN
 62
           7
 48
0.20000000298
100
AcDbLine
 10
-0.731425667647
 20
-16.478902199077
 30
0.0
 11
-0.771492315093
 21
-16.600076079676
 31
0.0
1001
TCAD
1000
TCW_CUSTOM_DATA
1002
{
1000
#$AUX@_ToolInfo Properties
1070
           8
1000
Insert^JLine^JPerpendicular@Line Perpendicular
1002
}
  0
LINE
  5
BA
100
AcDbEntity
  8
Hidden
370
           0
  6
HIDDEN
 62
           7
 48
0.20000000298
100
AcDbLine
 10
-0.960873020777
 20
-16.40303447775
 30
0.0
 11
-1.000939668224
 21
-16.524208358348
 31
0.0
1001
TCAD
1000
TCW_CUSTOM_DATA
1002
{
1000
#$AUX@_ToolInfo Properties
1070
           8
1000
Insert^JLine^JPerpendicular@Line Perpendicular
1002
}
  0
LINE
  5
BB
100
AcDbEntity
  8
Exterior View
370
           0
  6
Continuous
 62
           7
100
AcDbLine
 10
-1.25
 20
-14.175371367961
 30
0.0
 11
-1.25
 21
-13.925371367961
 31
0.0
1001
TCAD
1000
TCW_CUSTOM_DATA
1002
{
1000
#$AUX@_ToolInfo Properties
1070
           8
1000
Insert^JLine^JSingle@Line Single
1002
}
  0
LINE
  5
BC
100
AcDbEntity
  8
Exterior View
370
           0
  6
Continuous
 62
           7
100
AcDbLine
 10
2.375
 20
-13.925371367961
 30
0.0
 11
2.375
 21
-14.175371367961
 31
0.0
1001
TCAD
1000
TCW_CUSTOM_DATA
1002
{
1000
#$AUX@_ToolInfo Properties
1070
           8
1000
Insert^JLine^JSingle@Line Single
1002
}
  0
ELLIPSE
  5
BD
100
AcDbEntity
  8
Exterior View
370
           0
  6
Continuous
 62
           7
100
AcDbEllipse
 10
7.723738716421
 20
-17.262463483748
 30
0.0
 11
11.743786585133243
 21
0.0
 31
0.0
210
0.0
220
0.0
230
1.0
 40
0.887856574859
 41
2.6054960730235659
 42
2.7362776711528736
  0
ELLIPSE
  5
BE
100
AcDbEntity
  8
Exterior View
370
           0
  6
Continuous
 62
           7
100
AcDbEllipse
 10
-3.813282384539
 20
-10.974395272
 30
0.0
 11
0.0000000000000001
 21
-1.7490939621949373
 31
0.0
210
0.0
220
0.0
230
1.0
 40
0.986408494714
 41
0.9882787587888575
 42
1.9859810824756317
  0
ELLIPSE
  5
BF
100
AcDbEntity
  8
Exterior View
370
           0
  6
Continuous
 62
           7
100
AcDbEllipse
 10
0.41281610256
 20
0.606160492008
 30
0.0
 11
0.0
 21
-0.0787059802134576
 31
0.0
210
0.0
220
0.0
230
1.0
 40
0.794094677819
 41
1.5620696805349232
 42
7.845254987714509
1001
TCAD
1000
TCW_CUSTOM_DATA
1002
{
1000
#$AUX@_ToolInfo Properties
1070
           8
1000
Insert^JCircle^JCenterAndPoint@Circle CenterAndPoint
1002
}
  0
ELLIPSE
  5
C0
100
AcDbEntity
  8
Exterior View
370
           0
  6
Continuous
 62
           7
100
AcDbEllipse
 10
0.114606443033
 20
0.57545714941
 30
0.0
 11
0.0
 21
-0.0786761903189084
 31
0.0
210
0.0
220
0.0
230
1.0
 40
0.79439535324
 41
1.5446163880149788
 42
7.827801695194565
1001
TCAD
1000
TCW_CUSTOM_DATA
1002
{
1000
#$AUX@_ToolInfo Properties
1070
           8
1000
Insert^JCircle^JCenterAndPoint@Circle CenterAndPoint
1002
}
  0
ELLIPSE
  5
C1
100
AcDbEntity
  8
Exterior View
370
           0
  6
Continuous
 62
           7
100
AcDbEllipse
 10
0.711236855082
 20
0.606280229945
 30
0.0
 11
0.0
 21
-0.0785862422765261
 31
0.0
210
0.0
220
0.0
230
1.0
 40
0.795304600264
 41
-1.5604647263188784
 42
4.7227205808607078
1001
TCAD
1000
TCW_CUSTOM_DATA
1002
{
1000
#$AUX@_ToolInfo Properties
1070
           8
1000
Insert^JCircle^JCenterAndPoint@Circle CenterAndPoint
1002
}
  0
ELLIPSE
  5
C2
100
AcDbEntity
  8
Exterior View
370
           0
  6
Continuous
 62
           7
100
AcDbEllipse
 10
1.009495360159
 20
0.575816213422
 30
0.0
 11
0.0
 21
-0.0783171263067245
 31
0.0
210
0.0
220
0.0
230
1.0
 40
0.798037452948
 41
-1.5430114337989362
 42
4.74017387338065
1001
TCAD
1000
TCW_CUSTOM_DATA
1002
{
1000
#$AUX@_ToolInfo Properties
1070
           8
1000
Insert^JCircle^JCenterAndPoint@Circle CenterAndPoint
1002
}
  0
LINE
  5
C3
100
AcDbEntity
  8
Exterior View
370
           0
  6
Continuous
 62
           7
100
AcDbLine
 10
0.122241349848
 20
0.497249046353
 30
0.0
 11
0.171875
 21
-0.0
 31
0.0
1001
TCAD
1000
TCW_CUSTOM_DATA
1002
{
1000
#$AUX@_ToolInfo Properties
1070
           8
1000
Insert^JLine^JSingle@Line Single
1002
}
  0
LINE
  5
C4
100
AcDbEntity
  8
Exterior View
370
           0
  6
Continuous
 62
           7
100
AcDbLine
 10
0.42715
 20
-0.0
 30
0.0
 11
0.415544458088
 21
0.527514091583
 31
0.0
1001
TCAD
1000
TCW_CUSTOM_DATA
1002
{
1000
#$AUX@_ToolInfo Properties
1070
           8
1000
Insert^JLine^JSingle@Line Single
1002
}
  0
LINE
  5
C5
100
AcDbEntity
  8
Exterior View
370
           0
  6
Continuous
 62
           7
100
AcDbLine
 10
0.707665314915
 20
0.527796118307
 30
0.0
 11
0.69795
 21
-0.0
 31
0.0
1001
TCAD
1000
TCW_CUSTOM_DATA
1002
{
1000
#$AUX@_ToolInfo Properties
1070
           8
1000
Insert^JLine^JSingle@Line Single
1002
}
  0
LINE
  5
C6
100
AcDbEntity
  8
Exterior View
370
           0
  6
Continuous
 62
           7
100
AcDbLine
 10
0.96875
 20
-0.0
 30
0.0
 11
0.998108965526
 21
0.498545039102
 31
0.0
1001
TCAD
1000
TCW_CUSTOM_DATA
1002
{
1000
#$AUX@_ToolInfo Properties
1070
           8
1000
Insert^JLine^JSingle@Line Single
1002
}
  0
ARC
  5
C7
100
AcDbEntity
  8
Hidden
370
           0
  6
HIDDEN
 62
           7
 48
0.20000000298
100
AcDbCircle
 10
0.5625
 20
-11.675371367961
 30
0.0
 40
4.09375
100
AcDbArc
 50
-111.691278148893
 51
-68.308720309768
  0
ARC
  5
C8
100
AcDbEntity
  8
Exterior View
370
           0
  6
Continuous
 62
           7
100
AcDbCircle
 10
0.5625
 20
-11.675371367961
 30
0.0
 40
5.09375
100
AcDbArc
 50
-107.901105496892
 51
-72.098894502863
  0
ARC
  5
C9
100
AcDbEntity
  8
Exterior View
370
           0
  6
Continuous
 62
           7
100
AcDbCircle
 10
-0.301526578621
 20
-14.373989224801
 30
0.0
 40
3.025206514342
100
AcDbArc
 50
156.156723576019
 51
233.921418760673
  0
LINE
  5
CA
100
AcDbEntity
  8
Hidden
370
           0
  6
HIDDEN
 62
           7
 48
0.20000000298
100
AcDbLine
 10
-1.347522135127
 20
-15.633805181456
 30
0.0
 11
-1.896862078911
 21
-16.772287175244
 31
0.0
  0
ARC
  5
CB
100
AcDbEntity
  8
Hidden
370
           0
  6
HIDDEN
 62
           7
 48
0.20000000298
100
AcDbCircle
 10
-1.066073422631
 20
-15.769609718326
 30
0.0
 40
0.3125
100
AcDbArc
 50
68.308721850669
 51
154.241777110657
  0
ARC
  5
CC
100
AcDbEntity
  8
Exterior View
370
           0
  6
Continuous
 62
           7
100
AcDbCircle
 10
-2.009441571841
 20
-16.717965376933
 30
0.0
 40
0.125
100
AcDbArc
 50
-126.078581330053
 51
-38.600729569766
  0
ARC
  5
CD
100
AcDbEntity
  8
Hidden
370
           0
  6
HIDDEN
 62
           7
 48
0.20000000298
100
AcDbCircle
 10
-2.009441571841
 20
-16.717965376933
 30
0.0
 40
0.125
100
AcDbArc
 50
-38.600729569764
 51
-25.758213229996
  0
ARC
  5
CE
100
AcDbEntity
  8
Exterior View
370
           0
  6
Continuous
 62
           7
100
AcDbCircle
 10
-1.258877512757
 20
-17.31914225929
 30
0.0
 40
0.836644639887
100
AcDbArc
 50
72.022592695172
 51
141.32030229152
  0
ARC
  5
CF
100
AcDbEntity
  8
Exterior View
370
           0
  6
Continuous
 62
           7
100
AcDbCircle
 10
1.426526578621
 20
-14.373989224801
 30
0.0
 40
3.025206514342
100
AcDbArc
 50
-53.921418669712
 51
23.843276423991
  0
LINE
  5
D0
100
AcDbEntity
  8
Hidden
370
           0
  6
HIDDEN
 62
           7
 48
0.20000000298
100
AcDbLine
 10
2.472522135127
 20
-15.633805181456
 30
0.0
 11
3.021862078911
 21
-16.772287175244
 31
0.0
  0
ARC
  5
D1
100
AcDbEntity
  8
Hidden
370
           0
  6
HIDDEN
 62
           7
 48
0.20000000298
100
AcDbCircle
 10
2.191073422631
 20
-15.769609718326
 30
0.0
 40
0.3125
100
AcDbArc
 50
25.758222889343
 51
111.691278149331
  0
ARC
  5
D2
100
AcDbEntity
  8
Exterior View
370
           0
  6
Continuous
 62
           7
100
AcDbCircle
 10
3.134441571841
 20
-16.717965376933
 30
0.0
 40
0.125
100
AcDbArc
 50
-141.399270430236
 51
-53.921418669948
  0
ARC
  5
D3
100
AcDbEntity
  8
Hidden
370
           0
  6
HIDDEN
 62
           7
 48
0.20000000298
100
AcDbCircle
 10
3.134441571841
 20
-16.717965376933
 30
0.0
 40
0.125
100
AcDbArc
 50
-154.241786770003
 51
-141.399270430236
  0
ARC
  5
D4
100
AcDbEntity
  8
Exterior View
370
           0
  6
Continuous
 62
           7
100
AcDbCircle
 10
2.383877512757
 20
-17.31914225929
 30
0.0
 40
0.836644639887
100
AcDbArc
 50
38.67969770848
 51
107.977407304828
  0
ARC
  5
D5
100
AcDbEntity
  8
Hidden
370
           0
  6
HIDDEN
 62
           7
 48
0.20000000298
100
AcDbCircle
 10
-0.7175
 20
-10.425371367961
 30
0.0
 40
0.36
100
AcDbArc
 50
90.0
 51
270.0
1001
TCAD
1000
TCW_CUSTOM_DATA
1002
{
1000
#$AUX@_ToolInfo Properties
1070
           8
1000
Insert^JArc^JTanToEntities@Arc TanToEntities
1002
}
  0
ARC
  5
D6
100
AcDbEntity
  8
Hidden
370
           0
  6
HIDDEN
 62
           7
 48
0.20000000298
100
AcDbCircle
 10
1.8425
 20
-10.425371367961
 30
0.0
 40
0.36
100
AcDbArc
 50
-90.0
 51
90.0
1001
TCAD
1000
TCW_CUSTOM_DATA
1002
{
1000
#$AUX@_ToolInfo Properties
1070
           8
1000
Insert^JArc^JTanToEntities@Arc TanToEntities
1002
}
  0
ARC
  5
D7
100
AcDbEntity
  8
Exterior View
370
           0
  6
Continuous
 62
           7
100
AcDbCircle
 10
-0.4525
 20
-10.425371367961
 30
0.0
 40
0.36
100
AcDbArc
 50
90.0
 51
269.99999532369
1001
TCAD
1000
TCW_CUSTOM_DATA
1002
{
1000
#$AUX@_ToolInfo Properties
1070
           8
1000
Insert^JArc^JTanToEntities@Arc TanToEntities
1002
}
  0
ARC
  5
D8
100
AcDbEntity
  8
Exterior View
370
           0
  6
Continuous
 62
           7
100
AcDbCircle
 10
1.5775
 20
-10.425371367961
 30
0.0
 40
0.36
100
AcDbArc
 50
-90.0
 51
90.0
1001
TCAD
1000
TCW_CUSTOM_DATA
1002
{
1000
#$AUX@_ToolInfo Properties
1070
           8
1000
Insert^JArc^JTanToEntities@Arc TanToEntities
1002
}
  0
ARC
  5
D9
100
AcDbEntity
  8
Exterior View
370
           0
  6
Continuous
 62
           7
100
AcDbCircle
 10
3.543337486465
 20
-9.434743746232
 30
0.0
 40
0.03125
100
AcDbArc
 50
-1.309379517396
 51
86.512442873311
1001
TCAD
1000
TCW_CUSTOM_DATA
1002
{
1000
#$AUX@_ToolInfo Properties
1070
           8
1000
Insert^JArc^JTanToEntities@Arc TanToEntities
1002
}
  0
LINE
  5
DA
100
AcDbEntity
  8
Hidden
370
           0
  6
HIDDEN
 62
           7
 48
0.20000000298
100
AcDbLine
 10
2.327043384572
 20
-14.925519798307
 30
0.0
 11
3.788136537575
 21
-14.925502135803
 31
0.0
1001
TCAD
1000
TCW_CUSTOM_DATA
1002
{
1000
#$AUX@_ToolInfo Properties
1070
           8
1000
Insert^JLine^JPerpendicular@Line Perpendicular
1002
}
  0
ARC
  5
DB
100
AcDbEntity
  8
Hidden
370
           0
  6
HIDDEN
 62
           7
 48
0.20000000298
100
AcDbCircle
 10
1.426063313411
 20
-14.374346608236
 30
0.0
 40
2.525206514342
100
AcDbArc
 50
-10.227059009376
 51
23.564358803388
  0
ARC
  5
DC
100
AcDbEntity
  8
Hidden
370
           0
  6
HIDDEN
 62
           7
 48
0.20000000298
100
AcDbCircle
 10
3.788135026506
 20
-14.800502135812
 30
0.0
 40
0.125
100
AcDbArc
 50
-89.999313533485
 51
-10.227059009376
1001
TCAD
1000
TCW_CUSTOM_DATA
1002
{
1000
#$AUX@_ToolInfo Properties
1070
           8
1000
Insert^JArc^JTanToEntities@Arc TanToEntities
1002
}
  0
ARC
  5
DD
100
AcDbEntity
  8
Hidden
370
           0
  6
HIDDEN
 62
           7
 48
0.20000000298
100
AcDbCircle
 10
2.327041886674
 20
-14.800519798316
 30
0.0
 40
0.125
100
AcDbArc
 50
-179.999299740453
 51
-89.99929862826
1001
TCAD
1000
TCW_CUSTOM_DATA
1002
{
1000
#$AUX@_ToolInfo Properties
1070
           8
1000
Insert^JArc^JTanToEntities@Arc TanToEntities
1002
}
  0
ARC
  5
DE
100
AcDbEntity
  8
Hidden
370
           0
  6
HIDDEN
 62
           7
 48
0.20000000298
100
AcDbCircle
 10
3.438172869493
 20
-13.050506366221
 30
0.0
 40
0.125
100
AcDbArc
 50
28.808792636798
 51
90.000699817188
1001
TCAD
1000
TCW_CUSTOM_DATA
1002
{
1000
#$AUX@_ToolInfo Properties
1070
           8
1000
Insert^JArc^JTanToEntities@Arc TanToEntities
1002
}
  0
CIRCLE
  5
DF
100
AcDbEntity
  8
Hidden
370
           0
  6
HIDDEN
 62
           7
 48
0.20000000298
100
AcDbCircle
 10
3.156742736844
 20
-13.437672094689
 30
0.0
 40
0.46865625503
1001
TCAD
1000
TCW_CUSTOM_DATA
1002
{
1000
#$AUX@_ToolInfo Properties
1070
           8
1000
Insert^JCircle^JCenterAndPoint@Circle CenterAndPoint
1002
}
  0
LINE
  5
E0
100
AcDbEntity
  8
Hidden
370
           0
  6
HIDDEN
 62
           7
 48
0.20000000298
100
AcDbLine
 10
2.375763254187
 20
-13.8128350802
 30
0.0
 11
2.875663236347
 21
-13.812682760909
 31
0.0
1001
TCAD
1000
TCW_CUSTOM_DATA
1002
{
1000
#$AUX@_ToolInfo Properties
1070
           8
1000
Insert^JLine^JPerpendicular@Line Perpendicular
1002
}
  0
LINE
  5
E1
100
AcDbEntity
  8
Hidden
370
           0
  6
HIDDEN
 62
           7
 48
0.20000000298
100
AcDbLine
 10
2.375534775251
 20
-13.06298510696
 30
0.0
 11
2.875434757411
 21
-13.06283278767
 31
0.0
1001
TCAD
1000
TCW_CUSTOM_DATA
1002
{
1000
#$AUX@_ToolInfo Properties
1070
           8
1000
Insert^JLine^JPerpendicular@Line Perpendicular
1002
}
  0
LINE
  5
E2
100
AcDbEntity
  8
Hidden
370
           0
  6
HIDDEN
 62
           7
 48
0.20000000298
100
AcDbLine
 10
2.375763254187
 20
-13.8128350802
 30
0.0
 11
2.375534775251
 21
-13.06298510696
 31
0.0
1001
TCAD
1000
TCW_CUSTOM_DATA
1002
{
1000
#$AUX@_ToolInfo Properties
1070
           8
1000
Insert^JLine^JPerpendicular@Line Perpendicular
1002
}
  0
CIRCLE
  5
E3
100
AcDbEntity
  8
Exterior View
370
           0
  6
Continuous
 62
           7
 48
0.20000000298
100
AcDbCircle
 10
3.156742736844
 20
-13.437672094689
 30
0.0
 40
0.25
1001
TCAD
1000
TCW_CUSTOM_DATA
1002
{
1000
#$AUX@_ToolInfo Properties
1070
           8
1000
Insert^JCircle^JCenterAndPoint@Circle CenterAndPoint
1002
}
  0
CIRCLE
  5
E4
100
AcDbEntity
  8
Hidden
370
           0
  6
HIDDEN
 62
           7
 48
0.20000000298
100
AcDbCircle
 10
3.406818183242
 20
-14.437653230065
 30
0.0
 40
0.46865625503
1001
TCAD
1000
TCW_CUSTOM_DATA
1002
{
1000
#$AUX@_ToolInfo Properties
1070
           8
1000
Insert^JCircle^JCenterAndPoint@Circle CenterAndPoint
1002
}
  0
LINE
  5
E5
100
AcDbEntity
  8
Hidden
370
           0
  6
HIDDEN
 62
           7
 48
0.20000000298
100
AcDbLine
 10
2.625838700585
 20
-14.812816215576
 30
0.0
 11
3.125738682744
 21
-14.812663896286
 31
0.0
1001
TCAD
1000
TCW_CUSTOM_DATA
1002
{
1000
#$AUX@_ToolInfo Properties
1070
           8
1000
Insert^JLine^JPerpendicular@Line Perpendicular
1002
}
  0
LINE
  5
E6
100
AcDbEntity
  8
Hidden
370
           0
  6
HIDDEN
 62
           7
 48
0.20000000298
100
AcDbLine
 10
2.625610221649
 20
-14.062966242336
 30
0.0
 11
3.125510203809
 21
-14.062813923046
 31
0.0
1001
TCAD
1000
TCW_CUSTOM_DATA
1002
{
1000
#$AUX@_ToolInfo Properties
1070
           8
1000
Insert^JLine^JPerpendicular@Line Perpendicular
1002
}
  0
LINE
  5
E7
100
AcDbEntity
  8
Hidden
370
           0
  6
HIDDEN
 62
           7
 48
0.20000000298
100
AcDbLine
 10
2.625838700585
 20
-14.812816215576
 30
0.0
 11
2.625610221649
 21
-14.062966242336
 31
0.0
1001
TCAD
1000
TCW_CUSTOM_DATA
1002
{
1000
#$AUX@_ToolInfo Properties
1070
           8
1000
Insert^JLine^JPerpendicular@Line Perpendicular
1002
}
  0
CIRCLE
  5
E8
100
AcDbEntity
  8
Exterior View
370
           0
  6
Continuous
 62
           7
 48
0.20000000298
100
AcDbCircle
 10
3.406818183242
 20
-14.437653230065
 30
0.0
 40
0.25
1001
TCAD
1000
TCW_CUSTOM_DATA
1002
{
1000
#$AUX@_ToolInfo Properties
1070
           8
1000
Insert^JCircle^JCenterAndPoint@Circle CenterAndPoint
1002
}
  0
LWPOLYLINE
  5
E9
100
AcDbEntity
  8
Hidden
370
           0
  6
HIDDEN
 62
           7
 48
0.20000000298
100
AcDbPolyline
 90
        3
 70
           0
 10
3.740696876299
 20
-13.364822260029
 10
3.594192879313
 20
-13.074806296232
 10
3.547701962114
 20
-12.990270348178
  0
ARC
  5
EA
100
AcDbEntity
  8
Hidden
370
           0
  6
HIDDEN
 62
           7
 48
0.20000000298
100
AcDbCircle
 10
2.327020731703
 20
-13.050519798444
 30
0.0
 40
0.125
100
AcDbArc
 50
90.000701577619
 51
180.000695454811
1001
TCAD
1000
TCW_CUSTOM_DATA
1002
{
1000
#$AUX@_ToolInfo Properties
1070
           8
1000
Insert^JArc^JTanToEntities@Arc TanToEntities
1002
}
  0
LINE
  5
EB
100
AcDbEntity
  8
Hidden
370
           0
  6
HIDDEN
 62
           7
 48
0.20000000298
100
AcDbLine
 10
2.327019201098
 20
-12.925519798453
 30
0.0
 11
3.438171349299
 21
-12.92550636623
 31
0.0
1001
TCAD
1000
TCW_CUSTOM_DATA
1002
{
1000
#$AUX@_ToolInfo Properties
1070
           8
1000
Insert^JLine^JPerpendicular@Line Perpendicular
1002
}
  0
LINE
  5
EC
100
AcDbEntity
  8
Hidden
370
           0
  6
HIDDEN
 62
           7
 48
0.20000000298
100
AcDbLine
 10
2.202020731712
 20
-13.050521294966
 30
0.0
 11
2.202041886683
 21
-14.800521327919
 31
0.0
1001
TCAD
1000
TCW_CUSTOM_DATA
1002
{
1000
#$AUX@_ToolInfo Properties
1070
           8
1000
Insert^JLine^JPerpendicular@Line Perpendicular
1002
}
  0
LINE
  5
ED
100
AcDbEntity
  8
Hidden
370
           0
  6
HIDDEN
 62
           7
 48
0.20000000298
100
AcDbLine
 10
-0.999589700636
 20
-12.500485675289
 30
0.0
 11
1.000410293672
 21
-12.500334781071
 31
0.0
1001
TCAD
1000
TCW_CUSTOM_DATA
1002
{
1000
#$AUX@_ToolInfo Properties
1070
           8
1000
Insert^JLine^JSingle@Line Single
1002
}
  0
LINE
  5
EE
100
AcDbEntity
  8
Hidden
370
           0
  6
HIDDEN
 62
           7
 48
0.20000000298
100
AcDbLine
 10
-0.999589700636
 20
-12.500485675289
 30
0.0
 11
-0.99963685508
 21
-11.875485677068
 31
0.0
1001
TCAD
1000
TCW_CUSTOM_DATA
1002
{
1000
#$AUX@_ToolInfo Properties
1070
           8
1000
Insert^JLine^JSingle@Line Single
1002
}
  0
LINE
  5
EF
100
AcDbEntity
  8
Hidden
370
           0
  6
HIDDEN
 62
           7
 48
0.20000000298
100
AcDbLine
 10
-0.99963685508
 20
-11.875485677068
 30
0.0
 11
1.000363139228
 21
-11.875334782849
 31
0.0
1001
TCAD
1000
TCW_CUSTOM_DATA
1002
{
1000
#$AUX@_ToolInfo Properties
1070
           8
1000
Insert^JLine^JSingle@Line Single
1002
}
  0
LINE
  5
F0
100
AcDbEntity
  8
Hidden
370
           0
  6
HIDDEN
 62
           7
 48
0.20000000298
100
AcDbLine
 10
1.000410293672
 20
-12.500334781071
 30
0.0
 11
1.000363139228
 21
-11.875334782849
 31
0.0
1001
TCAD
1000
TCW_CUSTOM_DATA
1002
{
1000
#$AUX@_ToolInfo Properties
1070
           8
1000
Insert^JLine^JSingle@Line Single
1002
}
  0
LINE
  5
F1
100
AcDbEntity
  8
Hidden
370
           0
  6
HIDDEN
 62
           7
 48
0.20000000298
100
AcDbLine
 10
0.750410294383
 20
-12.500353642848
 30
0.0
 11
0.75036313994
 21
-11.875353644627
 31
0.0
1001
TCAD
1000
TCW_CUSTOM_DATA
1002
{
1000
#$AUX@_ToolInfo Properties
1070
           8
1000
Insert^JLine^JSingle@Line Single
1002
}
  0
LINE
  5
F2
100
AcDbEntity
  8
Hidden
370
           0
  6
HIDDEN
 62
           7
 48
0.20000000298
100
AcDbLine
 10
-0.624700423007
 20
-10.875469266457
 30
0.0
 11
-0.624695889799
 21
-11.25046926643
 31
0.0
1001
TCAD
1000
TCW_CUSTOM_DATA
1002
{
1000
#$AUX@_ToolInfo Properties
1070
           8
1000
Insert^JLine^JSingle@Line Single
1002
}
  0
LINE
  5
F3
100
AcDbEntity
  8
Hidden
370
           0
  6
HIDDEN
 62
           7
 48
0.20000000298
100
AcDbLine
 10
-0.624695889799
 20
-11.25046926643
 30
0.0
 11
-0.999695889772
 21
-11.250473799638
 31
0.0
1001
TCAD
1000
TCW_CUSTOM_DATA
1002
{
1000
#$AUX@_ToolInfo Properties
1070
           8
1000
Insert^JLine^JSingle@Line Single
1002
}
  0
LINE
  5
F4
100
AcDbEntity
  8
Hidden
370
           0
  6
HIDDEN
 62
           7
 48
0.20000000298
100
AcDbLine
 10
-0.999695889772
 20
-11.250473799638
 30
0.0
 11
-0.99970042298
 21
-10.875473799665
 31
0.0
1001
TCAD
1000
TCW_CUSTOM_DATA
1002
{
1000
#$AUX@_ToolInfo Properties
1070
           8
1000
Insert^JLine^JSingle@Line Single
1002
}
  0
CIRCLE
  5
F5
100
AcDbEntity
  8
Hidden
370
           0
  6
HIDDEN
 62
           7
 48
0.20000000298
100
AcDbCircle
 10
-0.874698156385
 20
-11.062972288582
 30
0.0
 40
0.0625
1001
TCAD
1000
TCW_CUSTOM_DATA
1002
{
1000
#$AUX@_ToolInfo Properties
1070
           8
1000
Insert^JCircle^JCenterAndPoint@Circle CenterAndPoint
1002
}
  0
LINE
  5
F6
100
AcDbEntity
  8
Hidden
370
           0
  6
HIDDEN
 62
           7
 48
0.20000000298
100
AcDbLine
 10
-0.624700423008
 20
-10.875469266457
 30
0.0
 11
-0.999700422981
 21
-10.875473799665
 31
0.0
1001
TCAD
1000
TCW_CUSTOM_DATA
1002
{
1000
#$AUX@_ToolInfo Properties
1070
           8
1000
Insert^JLine^JSingle@Line Single
1002
}
  0
ARC
  5
F7
100
AcDbEntity
  8
Hidden
370
           0
  6
HIDDEN
 62
           7
 48
0.20000000298
100
AcDbCircle
 10
-0.952094200257
 20
-12.44084447309
 30
0.0
 40
0.125
100
AcDbArc
 50
-179.995673016433
 51
-89.995673016433
1001
TCAD
1000
TCW_CUSTOM_DATA
1002
{
1000
#$AUX@_ToolInfo Properties
1070
           8
1000
Insert^JArc^JTanToEntities@Arc TanToEntities
1002
}
  0
ARC
  5
F8
100
AcDbEntity
  8
Hidden
370
           0
  6
HIDDEN
 62
           7
 48
0.20000000298
100
AcDbCircle
 10
1.320766716608
 20
-12.440672992304
 30
0.0
 40
0.125
100
AcDbArc
 50
-89.995677199053
 51
-44.995677199051
1001
TCAD
1000
TCW_CUSTOM_DATA
1002
{
1000
#$AUX@_ToolInfo Properties
1070
           8
1000
Insert^JArc^JTanToEntities@Arc TanToEntities
1002
}
  0
ARC
  5
F9
100
AcDbEntity
  8
Hidden
370
           0
  6
HIDDEN
 62
           7
 48
0.20000000298
100
AcDbCircle
 10
2.077848667164
 20
-11.683476793838
 30
0.0
 40
0.125
100
AcDbArc
 50
-44.995677199054
 51
0.004322800947
1001
TCAD
1000
TCW_CUSTOM_DATA
1002
{
1000
#$AUX@_ToolInfo Properties
1070
           8
1000
Insert^JArc^JTanToEntities@Arc TanToEntities
1002
}
  0
LINE
  5
FA
100
AcDbEntity
  8
Hidden
370
           0
  6
HIDDEN
 62
           7
 48
0.20000000298
100
AcDbLine
 10
1.40916173265
 20
-12.529054671055
 30
0.0
 11
2.166243683206
 21
-11.77185847259
 31
0.0
1001
TCAD
1000
TCW_CUSTOM_DATA
1002
{
1000
#$AUX@_ToolInfo Properties
1070
           8
1000
Insert^JLine^JSingle@Line Single
1002
}
  0
LINE
  5
FB
100
AcDbEntity
  8
Hidden
370
           0
  6
HIDDEN
 62
           7
 48
0.20000000298
100
AcDbLine
 10
-0.952084778494
 20
-12.565844472735
 30
0.0
 11
1.320776147497
 21
-12.565672991948
 31
0.0
1001
TCAD
1000
TCW_CUSTOM_DATA
1002
{
1000
#$AUX@_ToolInfo Properties
1070
           8
1000
Insert^JLine^JPerpendicular@Line Perpendicular
1002
}
  0
LINE
  5
FC
100
AcDbEntity
  8
Exterior View
370
           0
  6
Continuous
 62
           7
100
AcDbLine
 10
-4.140625
 20
-16.717965376933
 30
0.0
 11
-4.140625
 21
0.0
 31
0.0
1001
TCAD
1000
TCW_CUSTOM_DATA
1002
{
1000
#$AUX@_ToolInfo Properties
1070
           8
1000
Insert^JLine^JPerpendicular@Line Perpendicular
1002
}
  0
LINE
  5
FD
100
AcDbEntity
  8
Exterior View
370
           0
  6
Continuous
 62
           7
100
AcDbLine
 10
-4.3989657377
 20
0.964088270651
 30
0.0
 11
-4.140639064147
 21
-0.0
 31
0.0
1001
TCAD
1000
TCW_CUSTOM_DATA
1002
{
1000
#$AUX@_ToolInfo Properties
1070
           8
1000
Insert^JLine^JPerpendicular@Line Perpendicular
1002
}
  0
LINE
  5
FE
100
AcDbEntity
  8
Exterior View
370
           0
  6
Continuous
 62
           7
100
AcDbLine
 10
-4.140625
 20
-0.125
 30
0.0
 11
-3.9375
 21
-0.125
 31
0.0
1001
TCAD
1000
TCW_CUSTOM_DATA
1002
{
1000
#$AUX@_ToolInfo Properties
1070
           8
1000
Insert^JLine^JPerpendicular@Line Perpendicular
1002
}
  0
LINE
  5
FF
100
AcDbEntity
  8
Exterior View
370
           0
  6
Continuous
 62
           7
100
AcDbLine
 10
-3.9375
 20
-0.125
 30
0.0
 11
-3.9375
 21
-9.318546418356
 31
0.0
1001
TCAD
1000
TCW_CUSTOM_DATA
1002
{
1000
#$AUX@_ToolInfo Properties
1070
           8
1000
Insert^JLine^JPerpendicular@Line Perpendicular
1002
}
  0
LINE
  5
100
100
AcDbEntity
  8
Exterior View
370
           0
  6
Continuous
 62
           7
100
AcDbLine
 10
-4.140625
 20
0.0
 30
0.0
 11
-3.9375
 21
-0.0
 31
0.0
1001
TCAD
1000
TCW_CUSTOM_DATA
1002
{
1000
#$AUX@_ToolInfo Properties
1070
           8
1000
Insert^JLine^JSingle@Line Single
1002
}
  0
LINE
  5
101
100
AcDbEntity
  8
Exterior View
370
           0
  6
Continuous
 62
           7
100
AcDbLine
 10
-3.875
 20
-0.125
 30
0.0
 11
-3.875
 21
-0.0625
 31
0.0
1001
TCAD
1000
TCW_CUSTOM_DATA
1002
{
1000
#$AUX@_ToolInfo Properties
1070
           8
1000
Insert^JLine^JSingle@Line Single
1002
}
  0
LINE
  5
102
100
AcDbEntity
  8
Exterior View
370
           0
  6
Continuous
 62
           7
100
AcDbLine
 10
-3.9375
 20
-0.125
 30
0.0
 11
-3.875
 21
-0.125
 31
0.0
1001
TCAD
1000
TCW_CUSTOM_DATA
1002
{
1000
#$AUX@_ToolInfo Properties
1070
           8
1000
Insert^JLine^JSingle@Line Single
1002
}
  0
LINE
  5
103
100
AcDbEntity
  8
Exterior View
370
           0
  6
Continuous
 62
           7
100
AcDbLine
 10
-3.9375
 20
-0.8775
 30
0.0
 11
-3.92825
 21
-0.8775
 31
0.0
1001
TCAD
1000
TCW_CUSTOM_DATA
1002
{
1000
#$AUX@_ToolInfo Properties
1070
           8
1000
Insert^JLine^JPerpendicular@Line Perpendicular
1002
}
  0
LINE
  5
104
100
AcDbEntity
  8
Exterior View
370
           0
  6
Continuous
 62
           7
100
AcDbLine
 10
-3.9375
 20
-0.9305
 30
0.0
 11
-3.92825
 21
-0.9305
 31
0.0
1001
TCAD
1000
TCW_CUSTOM_DATA
1002
{
1000
#$AUX@_ToolInfo Properties
1070
           8
1000
Insert^JLine^JPerpendicular@Line Perpendicular
1002
}
  0
ARC
  5
105
100
AcDbEntity
  8
Exterior View
370
           0
  6
Continuous
 62
           7
100
AcDbCircle
 10
-3.927028153153
 20
-0.904
 30
0.0
 40
0.026528153153
100
AcDbArc
 50
-92.639891387827
 51
92.639891387827
1001
TCAD
1000
TCW_CUSTOM_DATA
1002
{
1000
#$AUX@_ToolInfo Properties
1070
           8
1000
Insert^JArc^JTriplePoint132@Arc TriplePoint132
1002
}
  0
LINE
  5
106
100
AcDbEntity
  8
Exterior View
370
           0
  6
Continuous
 62
           7
100
AcDbLine
 10
-3.9375
 20
-1.6125
 30
0.0
 11
-3.92825
 21
-1.6125
 31
0.0
1001
TCAD
1000
TCW_CUSTOM_DATA
1002
{
1000
#$AUX@_ToolInfo Properties
1070
           8
1000
Insert^JLine^JPerpendicular@Line Perpendicular
1002
}
  0
LINE
  5
107
100
AcDbEntity
  8
Exterior View
370
           0
  6
Continuous
 62
           7
100
AcDbLine
 10
-3.9375
 20
-1.6655
 30
0.0
 11
-3.92825
 21
-1.6655
 31
0.0
1001
TCAD
1000
TCW_CUSTOM_DATA
1002
{
1000
#$AUX@_ToolInfo Properties
1070
           8
1000
Insert^JLine^JPerpendicular@Line Perpendicular
1002
}
  0
ARC
  5
108
100
AcDbEntity
  8
Exterior View
370
           0
  6
Continuous
 62
           7
100
AcDbCircle
 10
-3.927028153153
 20
-1.639
 30
0.0
 40
0.026528153153
100
AcDbArc
 50
-92.639891387827
 51
92.639891387827
1001
TCAD
1000
TCW_CUSTOM_DATA
1002
{
1000
#$AUX@_ToolInfo Properties
1070
           8
1000
Insert^JArc^JTriplePoint132@Arc TriplePoint132
1002
}
  0
LINE
  5
109
100
AcDbEntity
  8
Exterior View
370
           0
  6
Continuous
 62
           7
100
AcDbLine
 10
-3.9375
 20
-2.3065
 30
0.0
 11
-3.92825
 21
-2.3065
 31
0.0
1001
TCAD
1000
TCW_CUSTOM_DATA
1002
{
1000
#$AUX@_ToolInfo Properties
1070
           8
1000
Insert^JLine^JPerpendicular@Line Perpendicular
1002
}
  0
LINE
  5
10A
100
AcDbEntity
  8
Exterior View
370
           0
  6
Continuous
 62
           7
100
AcDbLine
 10
-3.9375
 20
-2.3595
 30
0.0
 11
-3.92825
 21
-2.3595
 31
0.0
1001
TCAD
1000
TCW_CUSTOM_DATA
1002
{
1000
#$AUX@_ToolInfo Properties
1070
           8
1000
Insert^JLine^JPerpendicular@Line Perpendicular
1002
}
  0
ARC
  5
10B
100
AcDbEntity
  8
Exterior View
370
           0
  6
Continuous
 62
           7
100
AcDbCircle
 10
-3.927028153153
 20
-2.333
 30
0.0
 40
0.026528153153
100
AcDbArc
 50
-92.639891387827
 51
92.639891387827
1001
TCAD
1000
TCW_CUSTOM_DATA
1002
{
1000
#$AUX@_ToolInfo Properties
1070
           8
1000
Insert^JArc^JTriplePoint132@Arc TriplePoint132
1002
}
  0
LINE
  5
10C
100
AcDbEntity
  8
Exterior View
370
           0
  6
Continuous
 62
           7
100
AcDbLine
 10
-3.9375
 20
-2.9605
 30
0.0
 11
-3.92825
 21
-2.9605
 31
0.0
1001
TCAD
1000
TCW_CUSTOM_DATA
1002
{
1000
#$AUX@_ToolInfo Properties
1070
           8
1000
Insert^JLine^JPerpendicular@Line Perpendicular
1002
}
  0
LINE
  5
10D
100
AcDbEntity
  8
Exterior View
370
           0
  6
Continuous
 62
           7
100
AcDbLine
 10
-3.9375
 20
-3.0135
 30
0.0
 11
-3.92825
 21
-3.0135
 31
0.0
1001
TCAD
1000
TCW_CUSTOM_DATA
1002
{
1000
#$AUX@_ToolInfo Properties
1070
           8
1000
Insert^JLine^JPerpendicular@Line Perpendicular
1002
}
  0
ARC
  5
10E
100
AcDbEntity
  8
Exterior View
370
           0
  6
Continuous
 62
           7
100
AcDbCircle
 10
-3.927028153153
 20
-2.987
 30
0.0
 40
0.026528153153
100
AcDbArc
 50
-92.639891387827
 51
92.639891387827
1001
TCAD
1000
TCW_CUSTOM_DATA
1002
{
1000
#$AUX@_ToolInfo Properties
1070
           8
1000
Insert^JArc^JTriplePoint132@Arc TriplePoint132
1002
}
  0
LINE
  5
10F
100
AcDbEntity
  8
Exterior View
370
           0
  6
Continuous
 62
           7
100
AcDbLine
 10
-3.9375
 20
-3.5785
 30
0.0
 11
-3.92825
 21
-3.5785
 31
0.0
1001
TCAD
1000
TCW_CUSTOM_DATA
1002
{
1000
#$AUX@_ToolInfo Properties
1070
           8
1000
Insert^JLine^JPerpendicular@Line Perpendicular
1002
}
  0
LINE
  5
110
100
AcDbEntity
  8
Exterior View
370
           0
  6
Continuous
 62
           7
100
AcDbLine
 10
-3.9375
 20
-3.6315
 30
0.0
 11
-3.92825
 21
-3.6315
 31
0.0
1001
TCAD
1000
TCW_CUSTOM_DATA
1002
{
1000
#$AUX@_ToolInfo Properties
1070
           8
1000
Insert^JLine^JPerpendicular@Line Perpendicular
1002
}
  0
ARC
  5
111
100
AcDbEntity
  8
Exterior View
370
           0
  6
Continuous
 62
           7
100
AcDbCircle
 10
-3.927028153153
 20
-3.605
 30
0.0
 40
0.026528153153
100
AcDbArc
 50
-92.639891387827
 51
92.639891387826
1001
TCAD
1000
TCW_CUSTOM_DATA
1002
{
1000
#$AUX@_ToolInfo Properties
1070
           8
1000
Insert^JArc^JTriplePoint132@Arc TriplePoint132
1002
}
  0
LINE
  5
112
100
AcDbEntity
  8
Exterior View
370
           0
  6
Continuous
 62
           7
100
AcDbLine
 10
-3.9375
 20
-4.1625
 30
0.0
 11
-3.92825
 21
-4.1625
 31
0.0
1001
TCAD
1000
TCW_CUSTOM_DATA
1002
{
1000
#$AUX@_ToolInfo Properties
1070
           8
1000
Insert^JLine^JPerpendicular@Line Perpendicular
1002
}
  0
LINE
  5
113
100
AcDbEntity
  8
Exterior View
370
           0
  6
Continuous
 62
           7
100
AcDbLine
 10
-3.9375
 20
-4.2155
 30
0.0
 11
-3.92825
 21
-4.2155
 31
0.0
1001
TCAD
1000
TCW_CUSTOM_DATA
1002
{
1000
#$AUX@_ToolInfo Properties
1070
           8
1000
Insert^JLine^JPerpendicular@Line Perpendicular
1002
}
  0
ARC
  5
114
100
AcDbEntity
  8
Exterior View
370
           0
  6
Continuous
 62
           7
100
AcDbCircle
 10
-3.927028153153
 20
-4.189
 30
0.0
 40
0.026528153153
100
AcDbArc
 50
-92.639891387827
 51
92.639891387827
1001
TCAD
1000
TCW_CUSTOM_DATA
1002
{
1000
#$AUX@_ToolInfo Properties
1070
           8
1000
Insert^JArc^JTriplePoint132@Arc TriplePoint132
1002
}
  0
LINE
  5
115
100
AcDbEntity
  8
Exterior View
370
           0
  6
Continuous
 62
           7
100
AcDbLine
 10
-3.9375
 20
-4.7135
 30
0.0
 11
-3.92825
 21
-4.7135
 31
0.0
1001
TCAD
1000
TCW_CUSTOM_DATA
1002
{
1000
#$AUX@_ToolInfo Properties
1070
           8
1000
Insert^JLine^JPerpendicular@Line Perpendicular
1002
}
  0
LINE
  5
116
100
AcDbEntity
  8
Exterior View
370
           0
  6
Continuous
 62
           7
100
AcDbLine
 10
-3.9375
 20
-4.7665
 30
0.0
 11
-3.92825
 21
-4.7665
 31
0.0
1001
TCAD
1000
TCW_CUSTOM_DATA
1002
{
1000
#$AUX@_ToolInfo Properties
1070
           8
1000
Insert^JLine^JPerpendicular@Line Perpendicular
1002
}
  0
ARC
  5
117
100
AcDbEntity
  8
Exterior View
370
           0
  6
Continuous
 62
           7
100
AcDbCircle
 10
-3.927028153153
 20
-4.74
 30
0.0
 40
0.026528153153
100
AcDbArc
 50
-92.639891387827
 51
92.639891387826
1001
TCAD
1000
TCW_CUSTOM_DATA
1002
{
1000
#$AUX@_ToolInfo Properties
1070
           8
1000
Insert^JArc^JTriplePoint132@Arc TriplePoint132
1002
}
  0
LINE
  5
118
100
AcDbEntity
  8
Exterior View
370
           0
  6
Continuous
 62
           7
100
AcDbLine
 10
-3.9375
 20
-5.2325
 30
0.0
 11
-3.92825
 21
-5.2325
 31
0.0
1001
TCAD
1000
TCW_CUSTOM_DATA
1002
{
1000
#$AUX@_ToolInfo Properties
1070
           8
1000
Insert^JLine^JPerpendicular@Line Perpendicular
1002
}
  0
LINE
  5
119
100
AcDbEntity
  8
Exterior View
370
           0
  6
Continuous
 62
           7
100
AcDbLine
 10
-3.9375
 20
-5.2855
 30
0.0
 11
-3.92825
 21
-5.2855
 31
0.0
1001
TCAD
1000
TCW_CUSTOM_DATA
1002
{
1000
#$AUX@_ToolInfo Properties
1070
           8
1000
Insert^JLine^JPerpendicular@Line Perpendicular
1002
}
  0
ARC
  5
11A
100
AcDbEntity
  8
Exterior View
370
           0
  6
Continuous
 62
           7
100
AcDbCircle
 10
-3.927028153153
 20
-5.259
 30
0.0
 40
0.026528153153
100
AcDbArc
 50
-92.639891387827
 51
92.639891387827
1001
TCAD
1000
TCW_CUSTOM_DATA
1002
{
1000
#$AUX@_ToolInfo Properties
1070
           8
1000
Insert^JArc^JTriplePoint132@Arc TriplePoint132
1002
}
  0
LINE
  5
11B
100
AcDbEntity
  8
Exterior View
370
           0
  6
Continuous
 62
           7
100
AcDbLine
 10
-3.9375
 20
-5.7235
 30
0.0
 11
-3.92825
 21
-5.7235
 31
0.0
1001
TCAD
1000
TCW_CUSTOM_DATA
1002
{
1000
#$AUX@_ToolInfo Properties
1070
           8
1000
Insert^JLine^JPerpendicular@Line Perpendicular
1002
}
  0
LINE
  5
11C
100
AcDbEntity
  8
Exterior View
370
           0
  6
Continuous
 62
           7
100
AcDbLine
 10
-3.9375
 20
-5.7765
 30
0.0
 11
-3.92825
 21
-5.7765
 31
0.0
1001
TCAD
1000
TCW_CUSTOM_DATA
1002
{
1000
#$AUX@_ToolInfo Properties
1070
           8
1000
Insert^JLine^JPerpendicular@Line Perpendicular
1002
}
  0
ARC
  5
11D
100
AcDbEntity
  8
Exterior View
370
           0
  6
Continuous
 62
           7
100
AcDbCircle
 10
-3.927028153153
 20
-5.75
 30
0.0
 40
0.026528153153
100
AcDbArc
 50
-92.639891387827
 51
92.639891387827
1001
TCAD
1000
TCW_CUSTOM_DATA
1002
{
1000
#$AUX@_ToolInfo Properties
1070
           8
1000
Insert^JArc^JTriplePoint132@Arc TriplePoint132
1002
}
  0
LINE
  5
11E
100
AcDbEntity
  8
Exterior View
370
           0
  6
Continuous
 62
           7
100
AcDbLine
 10
-3.9375
 20
-6.1865
 30
0.0
 11
-3.92825
 21
-6.1865
 31
0.0
1001
TCAD
1000
TCW_CUSTOM_DATA
1002
{
1000
#$AUX@_ToolInfo Properties
1070
           8
1000
Insert^JLine^JPerpendicular@Line Perpendicular
1002
}
  0
LINE
  5
11F
100
AcDbEntity
  8
Exterior View
370
           0
  6
Continuous
 62
           7
100
AcDbLine
 10
-3.9375
 20
-6.2395
 30
0.0
 11
-3.92825
 21
-6.2395
 31
0.0
1001
TCAD
1000
TCW_CUSTOM_DATA
1002
{
1000
#$AUX@_ToolInfo Properties
1070
           8
1000
Insert^JLine^JPerpendicular@Line Perpendicular
1002
}
  0
ARC
  5
120
100
AcDbEntity
  8
Exterior View
370
           0
  6
Continuous
 62
           7
100
AcDbCircle
 10
-3.927028153153
 20
-6.213
 30
0.0
 40
0.026528153153
100
AcDbArc
 50
-92.639891387842
 51
92.639891387842
1001
TCAD
1000
TCW_CUSTOM_DATA
1002
{
1000
#$AUX@_ToolInfo Properties
1070
           8
1000
Insert^JArc^JTriplePoint132@Arc TriplePoint132
1002
}
  0
LINE
  5
121
100
AcDbEntity
  8
Exterior View
370
           0
  6
Continuous
 62
           7
100
AcDbLine
 10
-3.9375
 20
-6.6235
 30
0.0
 11
-3.92825
 21
-6.6235
 31
0.0
1001
TCAD
1000
TCW_CUSTOM_DATA
1002
{
1000
#$AUX@_ToolInfo Properties
1070
           8
1000
Insert^JLine^JPerpendicular@Line Perpendicular
1002
}
  0
LINE
  5
122
100
AcDbEntity
  8
Exterior View
370
           0
  6
Continuous
 62
           7
100
AcDbLine
 10
-3.9375
 20
-6.6765
 30
0.0
 11
-3.92825
 21
-6.6765
 31
0.0
1001
TCAD
1000
TCW_CUSTOM_DATA
1002
{
1000
#$AUX@_ToolInfo Properties
1070
           8
1000
Insert^JLine^JPerpendicular@Line Perpendicular
1002
}
  0
ARC
  5
123
100
AcDbEntity
  8
Exterior View
370
           0
  6
Continuous
 62
           7
100
AcDbCircle
 10
-3.927028153153
 20
-6.65
 30
0.0
 40
0.026528153153
100
AcDbArc
 50
-92.639891387842
 51
92.639891387843
1001
TCAD
1000
TCW_CUSTOM_DATA
1002
{
1000
#$AUX@_ToolInfo Properties
1070
           8
1000
Insert^JArc^JTriplePoint132@Arc TriplePoint132
1002
}
  0
LINE
  5
124
100
AcDbEntity
  8
Exterior View
370
           0
  6
Continuous
 62
           7
100
AcDbLine
 10
-3.9375
 20
-7.0355
 30
0.0
 11
-3.92825
 21
-7.0355
 31
0.0
1001
TCAD
1000
TCW_CUSTOM_DATA
1002
{
1000
#$AUX@_ToolInfo Properties
1070
           8
1000
Insert^JLine^JPerpendicular@Line Perpendicular
1002
}
  0
LINE
  5
125
100
AcDbEntity
  8
Exterior View
370
           0
  6
Continuous
 62
           7
100
AcDbLine
 10
-3.9375
 20
-7.0885
 30
0.0
 11
-3.92825
 21
-7.0885
 31
0.0
1001
TCAD
1000
TCW_CUSTOM_DATA
1002
{
1000
#$AUX@_ToolInfo Properties
1070
           8
1000
Insert^JLine^JPerpendicular@Line Perpendicular
1002
}
  0
ARC
  5
126
100
AcDbEntity
  8
Exterior View
370
           0
  6
Continuous
 62
           7
100
AcDbCircle
 10
-3.927028153153
 20
-7.062
 30
0.0
 40
0.026528153153
100
AcDbArc
 50
-92.639891387842
 51
92.639891387843
1001
TCAD
1000
TCW_CUSTOM_DATA
1002
{
1000
#$AUX@_ToolInfo Properties
1070
           8
1000
Insert^JArc^JTriplePoint132@Arc TriplePoint132
1002
}
  0
LINE
  5
127
100
AcDbEntity
  8
Exterior View
370
           0
  6
Continuous
 62
           7
100
AcDbLine
 10
-3.9375
 20
-7.4255
 30
0.0
 11
-3.92825
 21
-7.4255
 31
0.0
1001
TCAD
1000
TCW_CUSTOM_DATA
1002
{
1000
#$AUX@_ToolInfo Properties
1070
           8
1000
Insert^JLine^JPerpendicular@Line Perpendicular
1002
}
  0
LINE
  5
128
100
AcDbEntity
  8
Exterior View
370
           0
  6
Continuous
 62
           7
100
AcDbLine
 10
-3.9375
 20
-7.4785
 30
0.0
 11
-3.92825
 21
-7.4785
 31
0.0
1001
TCAD
1000
TCW_CUSTOM_DATA
1002
{
1000
#$AUX@_ToolInfo Properties
1070
           8
1000
Insert^JLine^JPerpendicular@Line Perpendicular
1002
}
  0
ARC
  5
129
100
AcDbEntity
  8
Exterior View
370
           0
  6
Continuous
 62
           7
100
AcDbCircle
 10
-3.927028153153
 20
-7.452
 30
0.0
 40
0.026528153153
100
AcDbArc
 50
-92.639891387842
 51
92.639891387842
1001
TCAD
1000
TCW_CUSTOM_DATA
1002
{
1000
#$AUX@_ToolInfo Properties
1070
           8
1000
Insert^JArc^JTriplePoint132@Arc TriplePoint132
1002
}
  0
LINE
  5
12A
100
AcDbEntity
  8
Exterior View
370
           0
  6
Continuous
 62
           7
100
AcDbLine
 10
-3.9375
 20
-7.7925
 30
0.0
 11
-3.92825
 21
-7.7925
 31
0.0
1001
TCAD
1000
TCW_CUSTOM_DATA
1002
{
1000
#$AUX@_ToolInfo Properties
1070
           8
1000
Insert^JLine^JPerpendicular@Line Perpendicular
1002
}
  0
LINE
  5
12B
100
AcDbEntity
  8
Exterior View
370
           0
  6
Continuous
 62
           7
100
AcDbLine
 10
-3.9375
 20
-7.8455
 30
0.0
 11
-3.92825
 21
-7.8455
 31
0.0
1001
TCAD
1000
TCW_CUSTOM_DATA
1002
{
1000
#$AUX@_ToolInfo Properties
1070
           8
1000
Insert^JLine^JPerpendicular@Line Perpendicular
1002
}
  0
ARC
  5
12C
100
AcDbEntity
  8
Exterior View
370
           0
  6
Continuous
 62
           7
100
AcDbCircle
 10
-3.927028153153
 20
-7.819
 30
0.0
 40
0.026528153153
100
AcDbArc
 50
-92.639891387842
 51
92.639891387842
1001
TCAD
1000
TCW_CUSTOM_DATA
1002
{
1000
#$AUX@_ToolInfo Properties
1070
           8
1000
Insert^JArc^JTriplePoint132@Arc TriplePoint132
1002
}
  0
LINE
  5
12D
100
AcDbEntity
  8
Exterior View
370
           0
  6
Continuous
 62
           7
100
AcDbLine
 10
-3.9375
 20
-8.1395
 30
0.0
 11
-3.92825
 21
-8.1395
 31
0.0
1001
TCAD
1000
TCW_CUSTOM_DATA
1002
{
1000
#$AUX@_ToolInfo Properties
1070
           8
1000
Insert^JLine^JPerpendicular@Line Perpendicular
1002
}
  0
LINE
  5
12E
100
AcDbEntity
  8
Exterior View
370
           0
  6
Continuous
 62
           7
100
AcDbLine
 10
-3.9375
 20
-8.1925
 30
0.0
 11
-3.92825
 21
-8.1925
 31
0.0
1001
TCAD
1000
TCW_CUSTOM_DATA
1002
{
1000
#$AUX@_ToolInfo Properties
1070
           8
1000
Insert^JLine^JPerpendicular@Line Perpendicular
1002
}
  0
ARC
  5
12F
100
AcDbEntity
  8
Exterior View
370
           0
  6
Continuous
 62
           7
100
AcDbCircle
 10
-3.927028153153
 20
-8.166
 30
0.0
 40
0.026528153153
100
AcDbArc
 50
-92.639891387842
 51
92.639891387841
1001
TCAD
1000
TCW_CUSTOM_DATA
1002
{
1000
#$AUX@_ToolInfo Properties
1070
           8
1000
Insert^JArc^JTriplePoint132@Arc TriplePoint132
1002
}
  0
LINE
  5
130
100
AcDbEntity
  8
Exterior View
370
           0
  6
Continuous
 62
           7
100
AcDbLine
 10
-3.9375
 20
-8.4675
 30
0.0
 11
-3.92825
 21
-8.4675
 31
0.0
1001
TCAD
1000
TCW_CUSTOM_DATA
1002
{
1000
#$AUX@_ToolInfo Properties
1070
           8
1000
Insert^JLine^JPerpendicular@Line Perpendicular
1002
}
  0
LINE
  5
131
100
AcDbEntity
  8
Exterior View
370
           0
  6
Continuous
 62
           7
100
AcDbLine
 10
-3.9375
 20
-8.5205
 30
0.0
 11
-3.92825
 21
-8.5205
 31
0.0
1001
TCAD
1000
TCW_CUSTOM_DATA
1002
{
1000
#$AUX@_ToolInfo Properties
1070
           8
1000
Insert^JLine^JPerpendicular@Line Perpendicular
1002
}
  0
ARC
  5
132
100
AcDbEntity
  8
Exterior View
370
           0
  6
Continuous
 62
           7
100
AcDbCircle
 10
-3.927028153153
 20
-8.494
 30
0.0
 40
0.026528153153
100
AcDbArc
 50
-92.639891387842
 51
92.639891387842
1001
TCAD
1000
TCW_CUSTOM_DATA
1002
{
1000
#$AUX@_ToolInfo Properties
1070
           8
1000
Insert^JArc^JTriplePoint132@Arc TriplePoint132
1002
}
  0
LINE
  5
133
100
AcDbEntity
  8
Exterior View
370
           0
  6
Continuous
 62
           7
100
AcDbLine
 10
-3.9375
 20
-8.7765
 30
0.0
 11
-3.92825
 21
-8.7765
 31
0.0
1001
TCAD
1000
TCW_CUSTOM_DATA
1002
{
1000
#$AUX@_ToolInfo Properties
1070
           8
1000
Insert^JLine^JPerpendicular@Line Perpendicular
1002
}
  0
LINE
  5
134
100
AcDbEntity
  8
Exterior View
370
           0
  6
Continuous
 62
           7
100
AcDbLine
 10
-3.9375
 20
-8.8295
 30
0.0
 11
-3.92825
 21
-8.8295
 31
0.0
1001
TCAD
1000
TCW_CUSTOM_DATA
1002
{
1000
#$AUX@_ToolInfo Properties
1070
           8
1000
Insert^JLine^JPerpendicular@Line Perpendicular
1002
}
  0
ARC
  5
135
100
AcDbEntity
  8
Exterior View
370
           0
  6
Continuous
 62
           7
100
AcDbCircle
 10
-3.927028153153
 20
-8.803
 30
0.0
 40
0.026528153153
100
AcDbArc
 50
-92.639891387842
 51
92.639891387841
1001
TCAD
1000
TCW_CUSTOM_DATA
1002
{
1000
#$AUX@_ToolInfo Properties
1070
           8
1000
Insert^JArc^JTriplePoint132@Arc TriplePoint132
1002
}
  0
LINE
  5
136
100
AcDbEntity
  8
Exterior View
370
           0
  6
Continuous
 62
           7
100
AcDbLine
 10
-3.9375
 20
-9.0675
 30
0.0
 11
-3.92825
 21
-9.0675
 31
0.0
1001
TCAD
1000
TCW_CUSTOM_DATA
1002
{
1000
#$AUX@_ToolInfo Properties
1070
           8
1000
Insert^JLine^JPerpendicular@Line Perpendicular
1002
}
  0
LINE
  5
137
100
AcDbEntity
  8
Exterior View
370
           0
  6
Continuous
 62
           7
100
AcDbLine
 10
-3.9375
 20
-9.1205
 30
0.0
 11
-3.92825
 21
-9.1205
 31
0.0
1001
TCAD
1000
TCW_CUSTOM_DATA
1002
{
1000
#$AUX@_ToolInfo Properties
1070
           8
1000
Insert^JLine^JPerpendicular@Line Perpendicular
1002
}
  0
ARC
  5
138
100
AcDbEntity
  8
Exterior View
370
           0
  6
Continuous
 62
           7
100
AcDbCircle
 10
-3.927028153153
 20
-9.094
 30
0.0
 40
0.026528153153
100
AcDbArc
 50
-92.639891387842
 51
92.639891387841
1001
TCAD
1000
TCW_CUSTOM_DATA
1002
{
1000
#$AUX@_ToolInfo Properties
1070
           8
1000
Insert^JArc^JTriplePoint132@Arc TriplePoint132
1002
}
  0
ARC
  5
139
100
AcDbEntity
  8
Exterior View
370
           0
  6
Continuous
 62
           7
100
AcDbCircle
 10
-3.9375
 20
-0.0625
 30
0.0
 40
0.0625
100
AcDbArc
 50
0.0
 51
90.0
1001
TCAD
1000
TCW_CUSTOM_DATA
1002
{
1000
#$AUX@_ToolInfo Properties
1070
           8
1000
Insert^JArc^JCenterAndPoint@Arc CenterAndPoint
1002
}
  0
LINE
  5
13A
100
AcDbEntity
  8
Exterior View
370
           0
  6
Continuous
 62
           7
100
AcDbLine
 10
-4.765625
 20
-5.553415855217
 30
0.0
 11
-4.765625
 21
-0.499116330468
 31
0.0
  0
ARC
  5
13B
100
AcDbEntity
  8
Exterior View
370
           0
  6
Continuous
 62
           7
100
AcDbCircle
 10
-9.765625
 20
-0.499116330468
 30
0.0
 40
5.0
100
AcDbArc
 50
0.0
 51
13.237135206285
  0
LINE
  5
13C
100
AcDbEntity
  8
Exterior View
370
           0
  6
Continuous
 62
           7
100
AcDbLine
 10
-3.789896341463
 20
-13.925362381196
 30
0.0
 11
-3.789896341463
 21
-14.175362381196
 31
0.0
1001
TCAD
1000
TCW_CUSTOM_DATA
1002
{
1000
#$AUX@_ToolInfo Properties
1070
           8
1000
Insert^JLine^JPerpendicular@Line Perpendicular
1002
}
  0
LINE
  5
13D
100
AcDbEntity
  8
Exterior View
370
           0
  6
Continuous
 62
           7
100
AcDbLine
 10
-3.953173235508
 20
-14.175362381196
 30
0.0
 11
-3.953173235508
 21
-13.925362381196
 31
0.0
1001
TCAD
1000
TCW_CUSTOM_DATA
1002
{
1000
#$AUX@_ToolInfo Properties
1070
           8
1000
Insert^JLine^JSingle@Line Single
1002
}
  0
LINE
  5
13E
100
AcDbEntity
  8
Exterior View
370
           0
  6
Continuous
 62
           7
100
AcDbLine
 10
-3.953173235508
 20
-13.996840551866
 30
0.0
 11
-3.789896341463
 21
-13.996840551866
 31
0.0
1001
TCAD
1000
TCW_CUSTOM_DATA
1002
{
1000
#$AUX@_ToolInfo Properties
1070
           8
1000
Insert^JLine^JPerpendicular@Line Perpendicular
1002
}
  0
LINE
  5
13F
100
AcDbEntity
  8
Exterior View
370
           0
  6
Continuous
 62
           7
100
AcDbLine
 10
-3.87500117765
 20
-0.062116327084
 30
0.0
 11
-3.789896341463
 21
-13.925362381196
 31
0.0
1001
TCAD
1000
TCW_CUSTOM_DATA
1002
{
1000
#$AUX@_ToolInfo Properties
1070
           8
1000
Insert^JLine^JTanFromArc@Line TanFromArc
1002
}
  0
LINE
  5
140
100
AcDbEntity
  8
Exterior View
370
           0
  6
Continuous
 62
           7
100
AcDbLine
 10
-4.140625
 20
-13.925362381196
 30
0.0
 11
-3.789896341463
 21
-13.925362381196
 31
0.0
1001
TCAD
1000
TCW_CUSTOM_DATA
1002
{
1000
#$AUX@_ToolInfo Properties
1070
           8
1000
Insert^JLine^JPerpendicular@Line Perpendicular
1002
}
  0
LINE
  5
141
100
AcDbEntity
  8
Exterior View
370
           0
  6
Continuous
 62
           7
100
AcDbLine
 10
-4.140625
 20
-14.175362381196
 30
0.0
 11
-3.789896341463
 21
-14.175362381196
 31
0.0
1001
TCAD
1000
TCW_CUSTOM_DATA
1002
{
1000
#$AUX@_ToolInfo Properties
1070
           8
1000
Insert^JLine^JPerpendicular@Line Perpendicular
1002
}
  0
LINE
  5
142
100
AcDbEntity
  8
Hidden
370
           0
  6
HIDDEN
 62
           7
 48
0.20000000298
100
AcDbLine
 10
-4.265625
 20
-16.769121367961
 30
0.0
 11
-4.546875
 21
-16.769121367961
 31
0.0
1001
TCAD
1000
TCW_CUSTOM_DATA
1002
{
1000
#$AUX@_ToolInfo Properties
1070
           8
1000
Insert^JLine^JPerpendicular@Line Perpendicular
1002
}
  0
LINE
  5
143
100
AcDbEntity
  8
Exterior View
370
           0
  6
Continuous
 62
           7
100
AcDbLine
 10
-5.453125
 20
-7.062008986764
 30
0.0
 11
-4.140625
 21
-7.062008986764
 31
0.0
1001
TCAD
1000
TCW_CUSTOM_DATA
1002
{
1000
#$AUX@_ToolInfo Properties
1070
           8
1000
Insert^JLine^JPerpendicular@Line Perpendicular
1002
}
  0
LINE
  5
144
100
AcDbEntity
  8
Hidden
370
           0
  6
HIDDEN
 62
           7
 48
0.20000000298
100
AcDbLine
 10
-5.453125
 20
-15.769121367961
 30
0.0
 11
-4.703125
 21
-15.769121367961
 31
0.0
1001
TCAD
1000
TCW_CUSTOM_DATA
1002
{
1000
#$AUX@_ToolInfo Properties
1070
           8
1000
Insert^JLine^JPerpendicular@Line Perpendicular
1002
}
  0
LINE
  5
145
100
AcDbEntity
  8
Hidden
370
           0
  6
HIDDEN
 62
           7
 48
0.20000000298
100
AcDbLine
 10
-4.640625
 20
-15.519609718326
 30
0.0
 11
-4.640625
 21
-16.842965376933
 31
0.0
1001
TCAD
1000
TCW_CUSTOM_DATA
1002
{
1000
#$AUX@_ToolInfo Properties
1070
           8
1000
Insert^JLine^JPerpendicular@Line Perpendicular
1002
}
  0
LINE
  5
146
100
AcDbEntity
  8
Exterior View
370
           0
  6
Continuous
 62
           7
100
AcDbLine
 10
-4.140625
 20
-9.318546418356
 30
0.0
 11
-3.9375
 21
-9.318546418356
 31
0.0
1001
TCAD
1000
TCW_CUSTOM_DATA
1002
{
1000
#$AUX@_ToolInfo Properties
1070
           8
1000
Insert^JLine^JPerpendicular@Line Perpendicular
1002
}
  0
LINE
  5
147
100
AcDbEntity
  8
Exterior View
370
           0
  6
Continuous
 62
           7
100
AcDbLine
 10
-5.453125
 20
-16.842965376933
 30
0.0
 11
-4.265625
 21
-16.842965376933
 31
0.0
1001
TCAD
1000
TCW_CUSTOM_DATA
1002
{
1000
#$AUX@_ToolInfo Properties
1070
           8
1000
Insert^JLine^JPerpendicular@Line Perpendicular
1002
}
  0
LINE
  5
148
100
AcDbEntity
  8
Hidden
370
           0
  6
HIDDEN
 62
           7
 48
0.20000000298
100
AcDbLine
 10
-4.546875
 20
-16.482497619404
 30
0.0
 11
-4.265625
 21
-16.482497619404
 31
0.0
1001
TCAD
1000
TCW_CUSTOM_DATA
1002
{
1000
#$AUX@_ToolInfo Properties
1070
           8
1000
Insert^JLine^JPerpendicular@Line Perpendicular
1002
}
  0
LINE
  5
149
100
AcDbEntity
  8
Hidden
370
           0
  6
HIDDEN
 62
           7
 48
0.20000000298
100
AcDbLine
 10
-5.453125
 20
-15.457109718326
 30
0.0
 11
-4.703124993683
 21
-15.457109718326
 31
0.0
1001
TCAD
1000
TCW_CUSTOM_DATA
1002
{
1000
#$AUX@_ToolInfo Properties
1070
           8
1000
Insert^JLine^JPerpendicular@Line Perpendicular
1002
}
  0
ARC
  5
14A
100
AcDbEntity
  8
Hidden
370
           0
  6
HIDDEN
 62
           7
 48
0.20000000298
100
AcDbCircle
 10
-4.546875
 20
-16.388747619404
 30
0.0
 40
0.09375
100
AcDbArc
 50
180.0
 51
270.0
  0
ARC
  5
14B
100
AcDbEntity
  8
Hidden
370
           0
  6
HIDDEN
 62
           7
 48
0.20000000298
100
AcDbCircle
 10
-4.546875
 20
-16.675371367961
 30
0.0
 40
0.09375
100
AcDbArc
 50
180.0
 51
270.0
  0
LINE
  5
14C
100
AcDbEntity
  8
Hidden
370
           0
  6
HIDDEN
 62
           7
 48
0.20000000298
100
AcDbLine
 10
-4.438592372074
 20
-10.065371367961
 30
0.0
 11
-4.140625
 21
-10.065371367961
 31
0.0
  0
LINE
  5
14D
100
AcDbEntity
  8
Exterior View
370
           0
  6
Continuous
 62
           7
100
AcDbLine
 10
-4.140625
 20
-10.065371367961
 30
0.0
 11
-3.938592372074
 21
-10.065371367961
 31
0.0
  0
LINE
  5
14E
100
AcDbEntity
  8
Hidden
370
           0
  6
HIDDEN
 62
           7
 48
0.20000000298
100
AcDbLine
 10
-4.438592372074
 20
-10.785371367961
 30
0.0
 11
-4.140625
 21
-10.785371367961
 31
0.0
  0
LINE
  5
14F
100
AcDbEntity
  8
Exterior View
370
           0
  6
Continuous
 62
           7
100
AcDbLine
 10
-4.140625
 20
-10.785371367961
 30
0.0
 11
-3.938592372074
 21
-10.785371367961
 31
0.0
  0
LINE
  5
150
100
AcDbEntity
  8
Exterior View
370
           0
  6
Continuous
 62
           7
100
AcDbLine
 10
-3.938592372074
 20
-10.785371367961
 30
0.0
 11
-3.938592372074
 21
-10.065371367961
 31
0.0
1001
TCAD
1000
TCW_CUSTOM_DATA
1002
{
1000
#$AUX@_ToolInfo Properties
1070
           8
1000
Insert^JLine^JPerpendicular@Line Perpendicular
1002
}
  0
LINE
  5
151
100
AcDbEntity
  8
Hidden
370
           0
  6
HIDDEN
 62
           7
 48
0.20000000298
100
AcDbLine
 10
-4.438592372074
 20
-10.065371367961
 30
0.0
 11
-4.438592372074
 21
-10.785371367961
 31
0.0
1001
TCAD
1000
TCW_CUSTOM_DATA
1002
{
1000
#$AUX@_ToolInfo Properties
1070
           8
1000
Insert^JLine^JSingle@Line Single
1002
}
  0
ARC
  5
152
100
AcDbEntity
  8
Hidden
370
           0
  6
HIDDEN
 62
           7
 48
0.20000000298
100
AcDbCircle
 10
-4.265625
 20
-16.357497619404
 30
0.0
 40
0.125
100
AcDbArc
 50
-90.0
 51
0.0
1001
TCAD
1000
TCW_CUSTOM_DATA
1002
{
1000
#$AUX@_ToolInfo Properties
1070
           8
1000
Insert^JArc^JTanToEntities@Arc TanToEntities
1002
}
  0
ARC
  5
153
100
AcDbEntity
  8
Hidden
370
           0
  6
HIDDEN
 62
           7
 48
0.20000000298
100
AcDbCircle
 10
-4.265625
 20
-16.644121367961
 30
0.0
 40
0.125
100
AcDbArc
 50
-90.0
 51
0.0
1001
TCAD
1000
TCW_CUSTOM_DATA
1002
{
1000
#$AUX@_ToolInfo Properties
1070
           8
1000
Insert^JArc^JTanToEntities@Arc TanToEntities
1002
}
  0
ARC
  5
154
100
AcDbEntity
  8
Exterior View
370
           0
  6
Continuous
 62
           7
100
AcDbCircle
 10
-4.265625
 20
-16.717965376933
 30
0.0
 40
0.125
100
AcDbArc
 50
-90.0
 51
0.0
1001
TCAD
1000
TCW_CUSTOM_DATA
1002
{
1000
#$AUX@_ToolInfo Properties
1070
           8
1000
Insert^JArc^JTanToEntities@Arc TanToEntities
1002
}
  0
ARC
  5
155
100
AcDbEntity
  8
Hidden
370
           0
  6
HIDDEN
 62
           7
 48
0.20000000298
100
AcDbCircle
 10
-4.703125
 20
-15.831621367961
 30
0.0
 40
0.0625
100
AcDbArc
 50
0.0
 51
90.0
1001
TCAD
1000
TCW_CUSTOM_DATA
1002
{
1000
#$AUX@_ToolInfo Properties
1070
           8
1000
Insert^JArc^JTanToEntities@Arc TanToEntities
1002
}
  0
ARC
  5
156
100
AcDbEntity
  8
Hidden
370
           0
  6
HIDDEN
 62
           7
 48
0.20000000298
100
AcDbCircle
 10
-4.703125
 20
-15.519609718326
 30
0.0
 40
0.0625
100
AcDbArc
 50
0.0
 51
89.999994209429
1001
TCAD
1000
TCW_CUSTOM_DATA
1002
{
1000
#$AUX@_ToolInfo Properties
1070
           8
1000
Insert^JArc^JTanToEntities@Arc TanToEntities
1002
}
  0
ARC
  5
157
100
AcDbEntity
  8
Exterior View
370
           0
  6
Continuous
 62
           7
100
AcDbCircle
 10
-4.265625
 20
-7.187008986764
 30
0.0
 40
0.125
100
AcDbArc
 50
0.0
 51
89.999997585162
1001
TCAD
1000
TCW_CUSTOM_DATA
1002
{
1000
#$AUX@_ToolInfo Properties
1070
           8
1000
Insert^JArc^JTanToEntities@Arc TanToEntities
1002
}
  0
LINE
  5
158
100
AcDbEntity
  8
Hidden
370
           0
  6
HIDDEN
 62
           7
 48
0.20000000298
100
AcDbLine
 10
-4.26516572933
 20
0.46473984136
 30
0.0
 11
-4.030889038087
 21
0.527514091583
 31
0.0
1001
TCAD
1000
TCW_CUSTOM_DATA
1002
{
1000
#$AUX@_ToolInfo Properties
1070
           8
1000
Insert^JLine^JPerpendicular@Line Perpendicular
1002
}
  0
LINE
  5
159
100
AcDbEntity
  8
Exterior View
370
           0
  6
Continuous
 62
           7
100
AcDbLine
 10
-4.256930811298
 20
0.434006708867
 30
0.0
 11
-4.022654120055
 21
0.496780959091
 31
0.0
1001
TCAD
1000
TCW_CUSTOM_DATA
1002
{
1000
#$AUX@_ToolInfo Properties
1070
           8
1000
Insert^JLine^JPerpendicular@Line Perpendicular
1002
}
  0
LINE
  5
15A
100
AcDbEntity
  8
Exterior View
370
           0
  6
Continuous
 62
           7
100
AcDbLine
 10
-4.298659378384
 20
0.58973984136
 30
0.0
 11
-4.064382687141
 21
0.652514091583
 31
0.0
1001
TCAD
1000
TCW_CUSTOM_DATA
1002
{
1000
#$AUX@_ToolInfo Properties
1070
           8
1000
Insert^JLine^JPerpendicular@Line Perpendicular
1002
}
  0
LINE
  5
15B
100
AcDbEntity
  8
Exterior View
370
           0
  6
Continuous
 62
           7
100
AcDbLine
 10
-4.290424460352
 20
0.559006708867
 30
0.0
 11
-4.056147769109
 21
0.621780959091
 31
0.0
1001
TCAD
1000
TCW_CUSTOM_DATA
1002
{
1000
#$AUX@_ToolInfo Properties
1070
           8
1000
Insert^JLine^JPerpendicular@Line Perpendicular
1002
}
  0
LINE
  5
15C
100
AcDbEntity
  8
Exterior View
370
           0
  6
Continuous
 62
           7
100
AcDbLine
 10
-4.064382687141
 20
0.652514091583
 30
0.0
 11
-4.022654120055
 21
0.496780959091
 31
0.0
1001
TCAD
1000
TCW_CUSTOM_DATA
1002
{
1000
#$AUX@_ToolInfo Properties
1070
           8
1000
Insert^JLine^JPerpendicular@Line Perpendicular
1002
}
  0
LINE
  5
15D
100
AcDbEntity
  8
Exterior View
370
           0
  6
Continuous
 62
           7
100
AcDbLine
 10
-4.176888497395
 20
0.589428578453
 30
0.0
 11
-3.881007209793
 21
-0.035763982072
 31
0.0
1001
TCAD
1000
TCW_CUSTOM_DATA
1002
{
1000
#$AUX@_ToolInfo Properties
1070
           8
1000
Insert^JLine^JTanToArc@Line TanToArc
1002
}
  0
LINE
  5
15E
100
AcDbEntity
  8
Exterior View
370
           0
  6
Continuous
 62
           7
100
AcDbLine
 10
8.25
 20
-0.124999999999
 30
0.0
 11
8.25
 21
0.000000000001
 31
0.0
1001
TCAD
1000
TCW_CUSTOM_DATA
1002
{
1000
#$AUX@_ToolInfo Properties
1070
           8
1000
Insert^JLine^JPerpendicular@Line Perpendicular
1002
}
  0
LINE
  5
15F
100
AcDbEntity
  8
Exterior View
370
           0
  6
Continuous
 62
           7
100
AcDbLine
 10
9.375
 20
-0.124999999999
 30
0.0
 11
9.375
 21
0.000000000001
 31
0.0
1001
TCAD
1000
TCW_CUSTOM_DATA
1002
{
1000
#$AUX@_ToolInfo Properties
1070
           8
1000
Insert^JLine^JPerpendicular@Line Perpendicular
1002
}
  0
ARC
  5
160
100
AcDbEntity
  8
Hidden
370
           0
  6
HIDDEN
 62
           7
 48
0.20000000298
100
AcDbCircle
 10
10.779321108632
 20
-17.968951731245
 30
0.0
 40
1.5
100
AcDbArc
 50
105.60006779498
 51
107.299084071049
  0
POINT
  5
161
100
AcDbEntity
  8
Exterior View
  6
Continuous
 62
           7
100
AcDbPoint
 10
9.538647310775
 20
-16.306285568531
 30
0.0
1001
TCAD
1000
TCW_CUSTOM_DATA
1002
{
1000
#$AUX@_ToolInfo Properties
1070
           8
1000
Insert^JPoint^JCross@Point Cross
1002
}
1000
TC25ExternalObject
1002
{
1000
TCW30POINT
1000

1070
           0
1071
        0
1040
1.0
1040
0.0
1000
Continuous
1000
Exterior View
1070
          21
1071
        1
1071
      242
1010
9.538647310775
1020
-16.306285568531
1030
0.0
1070
           3
1071
-2147483645
1070
           1
1000
#$AUX@_ToolInfo Properties
1070
           8
1000
Insert^JPoint^JCross@Point Cross
1000
$POINTSIZE
1070
           5
1040
0.25
1000
$POINTTYPE
1070
          18
1070
           3
1000
ExplodeScale
1070
           5
1040
1.0
1002
}
  0
ELLIPSE
  5
162
100
AcDbEntity
  8
Exterior View
370
           0
  6
Continuous
 62
           7
 48
0.20000000298
100
AcDbEllipse
 10
9.538647310775
 20
-16.306285568531
 30
0.0
 11
0.0284621568637173
 21
-0.1217164969373253
 31
0.0
210
0.0
220
0.0
230
1.0
 40
0.965925826289
 41
3.0255216105298741
 42
9.3087069177094612
1001
TCAD
1000
TCW_CUSTOM_DATA
1002
{
1000
#$AUX@_ToolInfo Properties
1070
           8
1000
Insert^JCircle^JCenterAndPoint@Circle CenterAndPoint
1002
}
  0
LINE
  5
163
100
AcDbEntity
  8
Exterior View
370
           0
  6
Continuous
 62
           7
 48
0.20000000298
100
AcDbLine
 10
9.139353556973
 20
-16.633029365917
 30
0.0
 11
9.073406524346
 21
-16.074663028377
 31
0.0
1001
TCAD
1000
TCW_CUSTOM_DATA
1002
{
1000
#$AUX@_ToolInfo Properties
1070
           8
1000
Insert^JLine^JSingle@Line Single
1002
}
  0
LINE
  5
164
100
AcDbEntity
  8
Exterior View
370
           0
  6
Continuous
 62
           7
 48
0.20000000298
100
AcDbLine
 10
9.571620827089
 20
-16.585468737301
 30
0.0
 11
9.139353556973
 21
-16.633029365917
 31
0.0
1001
TCAD
1000
TCW_CUSTOM_DATA
1002
{
1000
#$AUX@_ToolInfo Properties
1070
           8
1000
Insert^JLine^JSingle@Line Single
1002
}
  0
ELLIPSE
  5
165
100
AcDbEntity
  8
Exterior View
370
           0
  6
Continuous
 62
           7
 48
0.20000000298
100
AcDbEllipse
 10
9.683799553033
 20
-15.913233568485
 30
0.0
 11
0.0113848627449423
 21
-0.048686598775084
 31
0.0
210
0.0
220
0.0
230
1.0
 40
0.965925826288
 41
1.2801923585470909
 42
7.5633776657266774
1001
TCAD
1000
TCW_CUSTOM_DATA
1002
{
1000
#$AUX@_ToolInfo Properties
1070
           8
1000
Insert^JCircle^JCenterAndPoint@Circle CenterAndPoint
1002
}
  0
ELLIPSE
  5
166
100
AcDbEntity
  8
Exterior View
370
           0
  6
Continuous
 62
           7
 48
0.20000000298
100
AcDbEllipse
 10
9.683799553033
 20
-15.913233568485
 30
0.0
 11
0.0192119558828165
 21
-0.0821586354327931
 31
0.0
210
0.0
220
0.0
230
1.0
 40
0.965925826288
 41
1.454725283738191
 42
3.8672521197171719
1001
TCAD
1000
TCW_CUSTOM_DATA
1002
{
1000
#$AUX@_ToolInfo Properties
1070
           8
1000
Insert^JArc^JCenterAndPoint@Arc CenterAndPoint
1002
}
  0
LINE
  5
167
100
AcDbEntity
  8
Exterior View
370
           0
  6
Continuous
 62
           7
 48
0.20000000298
100
AcDbLine
 10
9.764849666179
 20
-15.904315950619
 30
0.0
 11
9.808814354597
 21
-16.276560175646
 31
0.0
1001
TCAD
1000
TCW_CUSTOM_DATA
1002
{
1000
#$AUX@_ToolInfo Properties
1070
           8
1000
Insert^JLine^JSingle@Line Single
1002
}
  0
ELLIPSE
  5
168
100
AcDbEntity
  8
Exterior View
370
           0
  6
Continuous
 62
           7
 48
0.20000000298
100
AcDbEllipse
 10
9.538647310775
 20
-16.306285568531
 30
0.0
 11
0.0640398529422935
 21
-0.2738621181091549
 31
0.0
210
0.0
220
0.0
230
1.0
 40
0.965925826289
 41
-0.1160710430559206
 42
3.0255214747777437
  0
LINE
  5
169
100
AcDbEntity
  8
Exterior View
370
           0
  6
Continuous
 62
           7
 48
0.20000000298
100
AcDbLine
 10
9.073406524346
 20
-16.074663028377
 30
0.0
 11
9.505673831138
 21
-16.027102395726
 31
0.0
1001
TCAD
1000
TCW_CUSTOM_DATA
1002
{
1000
#$AUX@_ToolInfo Properties
1070
           8
1000
Insert^JLine^JPerpendicular@Line Perpendicular
1002
}
  0
LINE
  5
16A
100
AcDbEntity
  8
Exterior View
370
           0
  6
Continuous
 62
           7
 48
0.20000000298
100
AcDbLine
 10
9.61676280177
 20
-15.864088987413
 30
0.0
 11
9.505673831138
 21
-16.027102395726
 31
0.0
1001
TCAD
1000
TCW_CUSTOM_DATA
1002
{
1000
#$AUX@_ToolInfo Properties
1070
           8
1000
Insert^JLine^JTanFromArc@Line TanFromArc
1002
}
  0
ELLIPSE
  5
16B
100
AcDbEntity
  8
Exterior View
370
           0
  6
Continuous
 62
           7
100
AcDbEllipse
 10
9.346732623967
 20
-17.14441104883
 30
0.0
 11
0.0782709313731545
 21
-0.3347203665779936
 31
0.0
210
0.0
220
0.0
230
1.0
 40
0.965925826289
 41
4.5963178442730452
 42
7.7379105909208175
  0
ELLIPSE
  5
16C
100
AcDbEntity
  8
Exterior View
370
           0
  6
Continuous
 62
           7
100
AcDbEllipse
 10
9.553198822905
 20
-17.090270946722
 30
0.0
 11
0.0284621568634369
 21
-0.1217164969373865
 31
0.0
210
0.0
220
0.0
230
1.0
 40
0.965925826289
 41
1.4547252837372131
 42
3.0255216105321603
1001
TCAD
1000
TCW_CUSTOM_DATA
1002
{
1000
#$AUX@_ToolInfo Properties
1070
           8
1000
Insert^JArc^JTanToTwoEntities@Arc TanToTwoEntities
1002
}
  0
ELLIPSE
  5
16D
100
AcDbEntity
  8
Exterior View
370
           0
  6
Continuous
 62
           7
100
AcDbEllipse
 10
9.13293897696
 20
-17.136510446766
 30
0.0
 11
0.0284621568634902
 21
-0.1217164969373685
 31
0.0
210
0.0
220
0.0
230
1.0
 40
0.965925826289
 41
3.0255216105317313
 42
4.5963179373266279
1001
TCAD
1000
TCW_CUSTOM_DATA
1002
{
1000
#$AUX@_ToolInfo Properties
1070
           8
1000
Insert^JArc^JTanToTwoEntities@Arc TanToTwoEntities
1002
}
  0
LINE
  5
16E
100
AcDbEntity
  8
Exterior View
370
           0
  6
Continuous
 62
           7
100
AcDbLine
 10
9.673273062751
 20
-17.077059645307
 30
0.0
 11
9.676936788638
 21
-17.108080013081
 31
0.0
  0
LINE
  5
16F
100
AcDbEntity
  8
Exterior View
370
           0
  6
Continuous
 62
           7
100
AcDbLine
 10
9.118284079031
 20
-17.012429038621
 30
0.0
 11
9.538543930344
 21
-16.966189537986
 31
0.0
1001
TCAD
1000
TCW_CUSTOM_DATA
1002
{
1000
#$AUX@_ToolInfo Properties
1070
           8
1000
Insert^JLine^JSingle@Line Single
1002
}
  0
LINE
  5
170
100
AcDbEntity
  8
Exterior View
370
           0
  6
Continuous
 62
           7
100
AcDbLine
 10
9.404273950352
 20
-16.601740384739
 30
0.0
 11
9.448488245492
 21
-16.976098002675
 31
0.0
  0
LINE
  5
171
100
AcDbEntity
  8
Exterior View
370
           0
  6
Continuous
 62
           7
100
AcDbLine
 10
9.164351520715
 20
-16.630076928745
 30
0.0
 11
9.208339762094
 21
-17.002520574129
 31
0.0
  0
LINE
  5
172
100
AcDbEntity
  8
Exterior View
370
           0
  6
Continuous
 62
           7
100
AcDbLine
 10
9.016528455545
 20
-17.180742052825
 30
0.0
 11
9.012864735261
 21
-17.149721732493
 31
0.0
1001
TCAD
1000
TCW_CUSTOM_DATA
1002
{
1000
#$AUX@_ToolInfo Properties
1070
           8
1000
Insert^JLine^JSingle@Line Single
1002
}
  0
POINT
  5
173
100
AcDbEntity
  8
Exterior View
  6
Continuous
 62
           7
100
AcDbPoint
 10
10.404131552627
 20
-16.084380922347
 30
0.0
1001
TCAD
1000
TCW_CUSTOM_DATA
1002
{
1000
#$AUX@_ToolInfo Properties
1070
           8
1000
Insert^JPoint^JCross@Point Cross
1002
}
1000
TC25ExternalObject
1002
{
1000
TCW30POINT
1000

1070
           0
1071
        0
1040
1.0
1040
0.0
1000
Continuous
1000
Exterior View
1070
          21
1071
        1
1071
      242
1010
10.404131552627
1020
-16.084380922347
1030
0.0
1070
           3
1071
-2147483645
1070
           1
1000
#$AUX@_ToolInfo Properties
1070
           8
1000
Insert^JPoint^JCross@Point Cross
1000
$POINTSIZE
1070
           5
1040
0.25
1000
$POINTTYPE
1070
          18
1070
           3
1000
ExplodeScale
1070
           5
1040
1.0
1002
}
  0
ELLIPSE
  5
174
100
AcDbEntity
  8
Exterior View
370
           0
  6
Continuous
 62
           7
 48
0.20000000298
100
AcDbEllipse
 10
10.404131552627
 20
-16.084380922347
 30
0.0
 11
0.0531818444152405
 21
-0.1131224620681345
 31
0.0
210
0.0
220
0.0
230
1.0
 40
0.965925826289
 41
3.0255216105311664
 42
9.3087069177107526
1001
TCAD
1000
TCW_CUSTOM_DATA
1002
{
1000
#$AUX@_ToolInfo Properties
1070
           8
1000
Insert^JCircle^JCenterAndPoint@Circle CenterAndPoint
1002
}
  0
LINE
  5
175
100
AcDbEntity
  8
Exterior View
370
           0
  6
Continuous
 62
           7
 48
0.20000000298
100
AcDbLine
 10
10.08162307951
 20
-16.48710327797
 30
0.0
 11
9.900859791187
 21
-15.954706234778
 31
0.0
1001
TCAD
1000
TCW_CUSTOM_DATA
1002
{
1000
#$AUX@_ToolInfo Properties
1070
           8
1000
Insert^JLine^JSingle@Line Single
1002
}
  0
LINE
  5
176
100
AcDbEntity
  8
Exterior View
370
           0
  6
Continuous
 62
           7
 48
0.20000000298
100
AcDbLine
 10
10.494513196789
 20
-16.350579443943
 30
0.0
 11
10.08162307951
 21
-16.48710327797
 31
0.0
1001
TCAD
1000
TCW_CUSTOM_DATA
1002
{
1000
#$AUX@_ToolInfo Properties
1070
           8
1000
Insert^JLine^JSingle@Line Single
1002
}
  0
ELLIPSE
  5
177
100
AcDbEntity
  8
Exterior View
370
           0
  6
Continuous
 62
           7
 48
0.20000000298
100
AcDbEllipse
 10
10.464262120055
 20
-15.669720382832
 30
0.0
 11
0.0212727377657152
 21
-0.0452489848274598
 31
0.0
210
0.0
220
0.0
230
1.0
 40
0.965925826289
 41
1.2801923585456665
 42
7.5633776657252527
1001
TCAD
1000
TCW_CUSTOM_DATA
1002
{
1000
#$AUX@_ToolInfo Properties
1070
           8
1000
Insert^JCircle^JCenterAndPoint@Circle CenterAndPoint
1002
}
  0
ELLIPSE
  5
178
100
AcDbEntity
  8
Exterior View
370
           0
  6
Continuous
 62
           7
 48
0.20000000298
100
AcDbEllipse
 10
10.464262120055
 20
-15.669720382832
 30
0.0
 11
0.0358977449801099
 21
-0.0763576618961226
 31
0.0
210
0.0
220
0.0
230
1.0
 40
0.965925826288
 41
1.4547252837393756
 42
3.8672521197184411
1001
TCAD
1000
TCW_CUSTOM_DATA
1002
{
1000
#$AUX@_ToolInfo Properties
1070
           8
1000
Insert^JArc^JCenterAndPoint@Arc CenterAndPoint
1002
}
  0
LINE
  5
179
100
AcDbEntity
  8
Exterior View
370
           0
  6
Continuous
 62
           7
 48
0.20000000298
100
AcDbLine
 10
10.541679017045
 20
-15.644122163952
 30
0.0
 11
10.662187875927
 21
-15.99905352608
 31
0.0
1001
TCAD
1000
TCW_CUSTOM_DATA
1002
{
1000
#$AUX@_ToolInfo Properties
1070
           8
1000
Insert^JLine^JSingle@Line Single
1002
}
  0
ELLIPSE
  5
17A
100
AcDbEntity
  8
Exterior View
370
           0
  6
Continuous
 62
           7
 48
0.20000000298
100
AcDbEllipse
 10
10.404131552627
 20
-16.084380922347
 30
0.0
 11
0.1196591499336351
 21
-0.2545255396535373
 31
0.0
210
0.0
220
0.0
230
1.0
 40
0.965925826289
 41
-0.1160710430561509
 42
3.0255214747775514
  0
LINE
  5
17B
100
AcDbEntity
  8
Exterior View
370
           0
  6
Continuous
 62
           7
 48
0.20000000298
100
AcDbLine
 10
9.900859791187
 20
-15.954706234778
 30
0.0
 11
10.313749943498
 21
-15.818182389167
 31
0.0
1001
TCAD
1000
TCW_CUSTOM_DATA
1002
{
1000
#$AUX@_ToolInfo Properties
1070
           8
1000
Insert^JLine^JPerpendicular@Line Perpendicular
1002
}
  0
LINE
  5
17C
100
AcDbEntity
  8
Exterior View
370
           0
  6
Continuous
 62
           7
 48
0.20000000298
100
AcDbLine
 10
10.388461881458
 20
-15.635611150986
 30
0.0
 11
10.313749943498
 21
-15.818182389167
 31
0.0
1001
TCAD
1000
TCW_CUSTOM_DATA
1002
{
1000
#$AUX@_ToolInfo Properties
1070
           8
1000
Insert^JLine^JTanFromArc@Line TanFromArc
1002
}
  0
ELLIPSE
  5
17D
100
AcDbEntity
  8
Exterior View
370
           0
  6
Continuous
 62
           7
100
AcDbEllipse
 10
10.390935544674
 20
-16.944096824899
 30
0.0
 11
0.1462500721403659
 21
-0.3110867706879731
 31
0.0
210
0.0
220
0.0
230
1.0
 40
0.965925826289
 41
4.5963178442729902
 42
7.7379105909206869
  0
ELLIPSE
  5
17E
100
AcDbEntity
  8
Exterior View
370
           0
  6
Continuous
 62
           7
100
AcDbEllipse
 10
10.581603613445
 20
-16.848153458736
 30
0.0
 11
0.0531818444150428
 21
-0.1131224620682254
 31
0.0
210
0.0
220
0.0
230
1.0
 40
0.965925826289
 41
1.4547252837378648
 42
3.0255216105327976
1001
TCAD
1000
TCW_CUSTOM_DATA
1002
{
1000
#$AUX@_ToolInfo Properties
1070
           8
1000
Insert^JArc^JTanToTwoEntities@Arc TanToTwoEntities
1002
}
  0
ELLIPSE
  5
17F
100
AcDbEntity
  8
Exterior View
370
           0
  6
Continuous
 62
           7
100
AcDbEllipse
 10
10.18018266609
 20
-16.98088496404
 30
0.0
 11
0.0531818444152328
 21
-0.1131224620681208
 31
0.0
210
0.0
220
0.0
230
1.0
 40
0.965925826289
 41
3.0255216105311575
 42
4.5963179373260541
1001
TCAD
1000
TCW_CUSTOM_DATA
1002
{
1000
#$AUX@_ToolInfo Properties
1070
           8
1000
Insert^JArc^JTanToTwoEntities@Arc TanToTwoEntities
1002
}
  0
LINE
  5
180
100
AcDbEntity
  8
Hidden
370
           0
  6
HIDDEN
 62
           7
 48
0.20000000298
100
AcDbLine
 10
10.69629530761
 20
-16.810230156547
 30
0.0
 11
10.706337717596
 21
-16.839807785017
 31
0.0
  0
LINE
  5
181
100
AcDbEntity
  8
Exterior View
370
           0
  6
Continuous
 62
           7
100
AcDbLine
 10
10.140013044754
 20
-16.862574510562
 30
0.0
 11
10.541433997235
 21
-16.729843003563
 31
0.0
1001
TCAD
1000
TCW_CUSTOM_DATA
1002
{
1000
#$AUX@_ToolInfo Properties
1070
           8
1000
Insert^JLine^JSingle@Line Single
1002
}
  0
LINE
  5
182
100
AcDbEntity
  8
Exterior View
370
           0
  6
Continuous
 62
           7
100
AcDbLine
 10
10.334286738671
 20
-16.401529153188
 30
0.0
 11
10.455415219384
 21
-16.758285470116
 31
0.0
  0
LINE
  5
183
100
AcDbEntity
  8
Exterior View
370
           0
  6
Continuous
 62
           7
100
AcDbLine
 10
10.105458402464
 20
-16.479010537016
 30
0.0
 11
10.226031820896
 21
-16.834132044575
 31
0.0
  0
LINE
  5
184
100
AcDbEntity
  8
Exterior View
370
           0
  6
Continuous
 62
           7
100
AcDbLine
 10
10.075533361473
 20
-17.048385834504
 30
0.0
 11
10.065490966846
 21
-17.01880825127
 31
0.0
1001
TCAD
1000
TCW_CUSTOM_DATA
1002
{
1000
#$AUX@_ToolInfo Properties
1070
           8
1000
Insert^JLine^JSingle@Line Single
1002
}
  0
POINT
  5
185
100
AcDbEntity
  8
Exterior View
  6
Continuous
 62
           7
100
AcDbPoint
 10
8.086352689223
 20
-16.306285568531
 30
0.0
1001
TCAD
1000
TCW_CUSTOM_DATA
1002
{
1000
#$AUX@_ToolInfo Properties
1070
           8
1000
Insert^JPoint^JCross@Point Cross
1002
}
1000
TC25ExternalObject
1002
{
1000
TCW30POINT
1000

1070
           0
1071
        0
1040
1.0
1040
0.0
1000
Continuous
1000
Exterior View
1070
          21
1071
        1
1071
      242
1010
8.086352689223
1020
-16.306285568531
1030
0.0
1070
           3
1071
-2147483645
1070
           1
1000
#$AUX@_ToolInfo Properties
1070
           8
1000
Insert^JPoint^JCross@Point Cross
1000
$POINTSIZE
1070
           5
1040
0.25
1000
$POINTTYPE
1070
          18
1070
           3
1000
ExplodeScale
1070
           5
1040
1.0
1002
}
  0
ELLIPSE
  5
186
100
AcDbEntity
  8
Exterior View
370
           0
  6
Continuous
 62
           7
 48
0.20000000298
100
AcDbEllipse
 10
8.086352689223
 20
-16.306285568531
 30
0.0
 11
0.0284621568636563
 21
0.1217164969373316
 31
0.0
210
0.0
220
0.0
230
1.0
 40
0.965925826289
 41
0.1160710430594009
 42
6.3992563502389874
1001
TCAD
1000
TCW_CUSTOM_DATA
1002
{
1000
#$AUX@_ToolInfo Properties
1070
           8
1000
Insert^JCircle^JCenterAndPoint@Circle CenterAndPoint
1002
}
  0
LINE
  5
187
100
AcDbEntity
  8
Exterior View
370
           0
  6
Continuous
 62
           7
 48
0.20000000298
100
AcDbLine
 10
8.485646443025
 20
-16.633029365917
 30
0.0
 11
8.551593475652
 21
-16.074663028377
 31
0.0
1001
TCAD
1000
TCW_CUSTOM_DATA
1002
{
1000
#$AUX@_ToolInfo Properties
1070
           8
1000
Insert^JLine^JSingle@Line Single
1002
}
  0
LINE
  5
188
100
AcDbEntity
  8
Exterior View
370
           0
  6
Continuous
 62
           7
 48
0.20000000298
100
AcDbLine
 10
8.05337917291
 20
-16.585468737301
 30
0.0
 11
8.485646443025
 21
-16.633029365917
 31
0.0
1001
TCAD
1000
TCW_CUSTOM_DATA
1002
{
1000
#$AUX@_ToolInfo Properties
1070
           8
1000
Insert^JLine^JSingle@Line Single
1002
}
  0
ELLIPSE
  5
189
100
AcDbEntity
  8
Exterior View
370
           0
  6
Continuous
 62
           7
 48
0.20000000298
100
AcDbEllipse
 10
7.941200446966
 20
-15.913233568485
 30
0.0
 11
0.0113848627449423
 21
0.048686598775084
 31
0.0
210
0.0
220
0.0
230
1.0
 40
0.965925826288
 41
1.8614002950427024
 42
8.1445856022222891
1001
TCAD
1000
TCW_CUSTOM_DATA
1002
{
1000
#$AUX@_ToolInfo Properties
1070
           8
1000
Insert^JCircle^JCenterAndPoint@Circle CenterAndPoint
1002
}
  0
ELLIPSE
  5
18A
100
AcDbEntity
  8
Exterior View
370
           0
  6
Continuous
 62
           7
 48
0.20000000298
100
AcDbEllipse
 10
7.941200446966
 20
-15.913233568485
 30
0.0
 11
0.0192119558828164
 21
0.0821586354327931
 31
0.0
210
0.0
220
0.0
230
1.0
 40
0.965925826288
 41
-0.7256594661273784
 42
1.6868673698516021
1001
TCAD
1000
TCW_CUSTOM_DATA
1002
{
1000
#$AUX@_ToolInfo Properties
1070
           8
1000
Insert^JArc^JCenterAndPoint@Arc CenterAndPoint
1002
}
  0
LINE
  5
18B
100
AcDbEntity
  8
Exterior View
370
           0
  6
Continuous
 62
           7
 48
0.20000000298
100
AcDbLine
 10
7.860150333819
 20
-15.904315950619
 30
0.0
 11
7.816185645401
 21
-16.276560175646
 31
0.0
1001
TCAD
1000
TCW_CUSTOM_DATA
1002
{
1000
#$AUX@_ToolInfo Properties
1070
           8
1000
Insert^JLine^JSingle@Line Single
1002
}
  0
ELLIPSE
  5
18C
100
AcDbEntity
  8
Exterior View
370
           0
  6
Continuous
 62
           7
 48
0.20000000298
100
AcDbEllipse
 10
8.086352689223
 20
-16.306285568531
 30
0.0
 11
0.0640398529423266
 21
0.2738621181091402
 31
0.0
210
0.0
220
0.0
230
1.0
 40
0.965925826289
 41
0.1160711788121742
 42
3.2576636966458414
  0
LINE
  5
18D
100
AcDbEntity
  8
Exterior View
370
           0
  6
Continuous
 62
           7
 48
0.20000000298
100
AcDbLine
 10
8.551593475652
 20
-16.074663028377
 30
0.0
 11
8.11932616886
 21
-16.027102395726
 31
0.0
1001
TCAD
1000
TCW_CUSTOM_DATA
1002
{
1000
#$AUX@_ToolInfo Properties
1070
           8
1000
Insert^JLine^JPerpendicular@Line Perpendicular
1002
}
  0
LINE
  5
18E
100
AcDbEntity
  8
Exterior View
370
           0
  6
Continuous
 62
           7
 48
0.20000000298
100
AcDbLine
 10
8.008237198228
 20
-15.864088987413
 30
0.0
 11
8.11932616886
 21
-16.027102395726
 31
0.0
1001
TCAD
1000
TCW_CUSTOM_DATA
1002
{
1000
#$AUX@_ToolInfo Properties
1070
           8
1000
Insert^JLine^JTanFromArc@Line TanFromArc
1002
}
  0
ELLIPSE
  5
18F
100
AcDbEntity
  8
Exterior View
370
           0
  6
Continuous
 62
           7
100
AcDbEllipse
 10
8.278267376031
 20
-17.14441104883
 30
0.0
 11
0.0782709313732484
 21
0.3347203665779725
 31
0.0
210
0.0
220
0.0
230
1.0
 40
0.965925826289
 41
1.6868673698488523
 42
4.8284601164965837
  0
ELLIPSE
  5
190
100
AcDbEntity
  8
Exterior View
370
           0
  6
Continuous
 62
           7
100
AcDbEllipse
 10
8.071801177093
 20
-17.090270946722
 30
0.0
 11
0.0284621568634038
 21
0.1217164969374013
 31
0.0
210
0.0
220
0.0
230
1.0
 40
0.965925826289
 41
0.116071043057352
 42
1.6868673698522423
1001
TCAD
1000
TCW_CUSTOM_DATA
1002
{
1000
#$AUX@_ToolInfo Properties
1070
           8
1000
Insert^JArc^JTanToTwoEntities@Arc TanToTwoEntities
1002
}
  0
ELLIPSE
  5
191
100
AcDbEntity
  8
Exterior View
370
           0
  6
Continuous
 62
           7
100
AcDbEllipse
 10
8.492061023039
 20
-17.136510446766
 30
0.0
 11
0.0284621568635511
 21
0.1217164969373621
 31
0.0
210
0.0
220
0.0
230
1.0
 40
0.965925826289
 41
-1.4547252837363167
 42
0.1160710430585799
1001
TCAD
1000
TCW_CUSTOM_DATA
1002
{
1000
#$AUX@_ToolInfo Properties
1070
           8
1000
Insert^JArc^JTanToTwoEntities@Arc TanToTwoEntities
1002
}
  0
LINE
  5
192
100
AcDbEntity
  8
Exterior View
370
           0
  6
Continuous
 62
           7
100
AcDbLine
 10
7.951726937248
 20
-17.077059645307
 30
0.0
 11
7.94806321136
 21
-17.108080013081
 31
0.0
  0
LINE
  5
193
100
AcDbEntity
  8
Exterior View
370
           0
  6
Continuous
 62
           7
100
AcDbLine
 10
8.506715920967
 20
-17.012429038621
 30
0.0
 11
8.086456069654
 21
-16.966189537986
 31
0.0
1001
TCAD
1000
TCW_CUSTOM_DATA
1002
{
1000
#$AUX@_ToolInfo Properties
1070
           8
1000
Insert^JLine^JSingle@Line Single
1002
}
  0
LINE
  5
194
100
AcDbEntity
  8
Exterior View
370
           0
  6
Continuous
 62
           7
100
AcDbLine
 10
8.220726049647
 20
-16.601740384739
 30
0.0
 11
8.176511754507
 21
-16.976098002675
 31
0.0
  0
LINE
  5
195
100
AcDbEntity
  8
Exterior View
370
           0
  6
Continuous
 62
           7
100
AcDbLine
 10
8.460648479283
 20
-16.630076928745
 30
0.0
 11
8.416660237904
 21
-17.002520574129
 31
0.0
  0
LINE
  5
196
100
AcDbEntity
  8
Exterior View
370
           0
  6
Continuous
 62
           7
100
AcDbLine
 10
8.608471544453
 20
-17.180742052825
 30
0.0
 11
8.612135264737
 21
-17.149721732493
 31
0.0
1001
TCAD
1000
TCW_CUSTOM_DATA
1002
{
1000
#$AUX@_ToolInfo Properties
1070
           8
1000
Insert^JLine^JSingle@Line Single
1002
}
  0
POINT
  5
197
100
AcDbEntity
  8
Exterior View
  6
Continuous
 62
           7
100
AcDbPoint
 10
7.220868447371
 20
-16.084380922347
 30
0.0
1001
TCAD
1000
TCW_CUSTOM_DATA
1002
{
1000
#$AUX@_ToolInfo Properties
1070
           8
1000
Insert^JPoint^JCross@Point Cross
1002
}
1000
TC25ExternalObject
1002
{
1000
TCW30POINT
1000

1070
           0
1071
        0
1040
1.0
1040
0.0
1000
Continuous
1000
Exterior View
1070
          21
1071
        1
1071
      242
1010
7.220868447371
1020
-16.084380922347
1030
0.0
1070
           3
1071
-2147483645
1070
           1
1000
#$AUX@_ToolInfo Properties
1070
           8
1000
Insert^JPoint^JCross@Point Cross
1000
$POINTSIZE
1070
           5
1040
0.25
1000
$POINTTYPE
1070
          18
1070
           3
1000
ExplodeScale
1070
           5
1040
1.0
1002
}
  0
ELLIPSE
  5
198
100
AcDbEntity
  8
Exterior View
370
           0
  6
Continuous
 62
           7
 48
0.20000000298
100
AcDbEllipse
 10
7.220868447371
 20
-16.084380922347
 30
0.0
 11
0.053181844415271
 21
0.1131224620681244
 31
0.0
210
0.0
220
0.0
230
1.0
 40
0.965925826289
 41
0.1160710430589093
 42
6.3992563502384954
1001
TCAD
1000
TCW_CUSTOM_DATA
1002
{
1000
#$AUX@_ToolInfo Properties
1070
           8
1000
Insert^JCircle^JCenterAndPoint@Circle CenterAndPoint
1002
}
  0
LINE
  5
199
100
AcDbEntity
  8
Exterior View
370
           0
  6
Continuous
 62
           7
 48
0.20000000298
100
AcDbLine
 10
7.543376920488
 20
-16.48710327797
 30
0.0
 11
7.724140208811
 21
-15.954706234778
 31
0.0
1001
TCAD
1000
TCW_CUSTOM_DATA
1002
{
1000
#$AUX@_ToolInfo Properties
1070
           8
1000
Insert^JLine^JSingle@Line Single
1002
}
  0
LINE
  5
19A
100
AcDbEntity
  8
Exterior View
370
           0
  6
Continuous
 62
           7
 48
0.20000000298
100
AcDbLine
 10
7.130486803209
 20
-16.350579443943
 30
0.0
 11
7.543376920488
 21
-16.48710327797
 31
0.0
1001
TCAD
1000
TCW_CUSTOM_DATA
1002
{
1000
#$AUX@_ToolInfo Properties
1070
           8
1000
Insert^JLine^JSingle@Line Single
1002
}
  0
ELLIPSE
  5
19B
100
AcDbEntity
  8
Exterior View
370
           0
  6
Continuous
 62
           7
 48
0.20000000298
100
AcDbEllipse
 10
7.160737879944
 20
-15.669720382832
 30
0.0
 11
0.0212727377656471
 21
0.0452489848274898
 31
0.0
210
0.0
220
0.0
230
1.0
 40
0.965925826289
 41
1.8614002950426698
 42
8.1445856022222554
1001
TCAD
1000
TCW_CUSTOM_DATA
1002
{
1000
#$AUX@_ToolInfo Properties
1070
           8
1000
Insert^JCircle^JCenterAndPoint@Circle CenterAndPoint
1002
}
  0
ELLIPSE
  5
19C
100
AcDbEntity
  8
Exterior View
370
           0
  6
Continuous
 62
           7
 48
0.20000000298
100
AcDbEllipse
 10
7.160737879944
 20
-15.669720382832
 30
0.0
 11
0.0358977449801099
 21
0.0763576618961227
 31
0.0
210
0.0
220
0.0
230
1.0
 40
0.965925826288
 41
-0.7256594661286482
 42
1.6868673698504306
1001
TCAD
1000
TCW_CUSTOM_DATA
1002
{
1000
#$AUX@_ToolInfo Properties
1070
           8
1000
Insert^JArc^JCenterAndPoint@Arc CenterAndPoint
1002
}
  0
LINE
  5
19D
100
AcDbEntity
  8
Exterior View
370
           0
  6
Continuous
 62
           7
 48
0.20000000298
100
AcDbLine
 10
7.083320982954
 20
-15.644122163952
 30
0.0
 11
6.962812124072
 21
-15.99905352608
 31
0.0
1001
TCAD
1000
TCW_CUSTOM_DATA
1002
{
1000
#$AUX@_ToolInfo Properties
1070
           8
1000
Insert^JLine^JSingle@Line Single
1002
}
  0
ELLIPSE
  5
19E
100
AcDbEntity
  8
Exterior View
370
           0
  6
Continuous
 62
           7
 48
0.20000000298
100
AcDbEllipse
 10
7.220868447371
 20
-16.084380922347
 30
0.0
 11
0.1196591499335966
 21
0.2545255396535587
 31
0.0
210
0.0
220
0.0
230
1.0
 40
0.965925826289
 41
0.1160711788120833
 42
3.257663696645769
  0
LINE
  5
19F
100
AcDbEntity
  8
Exterior View
370
           0
  6
Continuous
 62
           7
 48
0.20000000298
100
AcDbLine
 10
7.724140208811
 20
-15.954706234778
 30
0.0
 11
7.3112500565
 21
-15.818182389167
 31
0.0
1001
TCAD
1000
TCW_CUSTOM_DATA
1002
{
1000
#$AUX@_ToolInfo Properties
1070
           8
1000
Insert^JLine^JPerpendicular@Line Perpendicular
1002
}
  0
LINE
  5
1A0
100
AcDbEntity
  8
Exterior View
370
           0
  6
Continuous
 62
           7
 48
0.20000000298
100
AcDbLine
 10
7.23653811854
 20
-15.635611150986
 30
0.0
 11
7.3112500565
 21
-15.818182389167
 31
0.0
1001
TCAD
1000
TCW_CUSTOM_DATA
1002
{
1000
#$AUX@_ToolInfo Properties
1070
           8
1000
Insert^JLine^JTanFromArc@Line TanFromArc
1002
}
  0
ELLIPSE
  5
1A1
100
AcDbEntity
  8
Exterior View
370
           0
  6
Continuous
 62
           7
100
AcDbEllipse
 10
7.234064455324
 20
-16.944096824899
 30
0.0
 11
0.1462500721404864
 21
0.3110867706879189
 31
0.0
210
0.0
220
0.0
230
1.0
 40
0.965925826289
 41
1.6868673698490819
 42
4.8284601164967391
  0
ELLIPSE
  5
1A2
100
AcDbEntity
  8
Exterior View
370
           0
  6
Continuous
 62
           7
100
AcDbEllipse
 10
7.043396386554
 20
-16.848153458736
 30
0.0
 11
0.0531818444149537
 21
0.1131224620682726
 31
0.0
210
0.0
220
0.0
230
1.0
 40
0.965925826289
 41
0.1160710430562128
 42
1.6868673698510916
1001
TCAD
1000
TCW_CUSTOM_DATA
1002
{
1000
#$AUX@_ToolInfo Properties
1070
           8
1000
Insert^JArc^JTanToTwoEntities@Arc TanToTwoEntities
1002
}
  0
ELLIPSE
  5
1A3
100
AcDbEntity
  8
Exterior View
370
           0
  6
Continuous
 62
           7
100
AcDbEllipse
 10
7.444817333908
 20
-16.98088496404
 30
0.0
 11
0.0531818444152227
 21
0.1131224620681318
 31
0.0
210
0.0
220
0.0
230
1.0
 40
0.965925826289
 41
-1.4547252837363212
 42
0.1160710430585755
1001
TCAD
1000
TCW_CUSTOM_DATA
1002
{
1000
#$AUX@_ToolInfo Properties
1070
           8
1000
Insert^JArc^JTanToTwoEntities@Arc TanToTwoEntities
1002
}
  0
LINE
  5
1A4
100
AcDbEntity
  8
Exterior View
370
           0
  6
Continuous
 62
           7
100
AcDbLine
 10
6.928704692388
 20
-16.810230156547
 30
0.0
 11
6.918662282403
 21
-16.839807785017
 31
0.0
  0
LINE
  5
1A5
100
AcDbEntity
  8
Exterior View
370
           0
  6
Continuous
 62
           7
100
AcDbLine
 10
7.484986955245
 20
-16.862574510562
 30
0.0
 11
7.083566002763
 21
-16.729843003563
 31
0.0
1001
TCAD
1000
TCW_CUSTOM_DATA
1002
{
1000
#$AUX@_ToolInfo Properties
1070
           8
1000
Insert^JLine^JSingle@Line Single
1002
}
  0
LINE
  5
1A6
100
AcDbEntity
  8
Exterior View
370
           0
  6
Continuous
 62
           7
100
AcDbLine
 10
7.290777820877
 20
-16.401339007756
 30
0.0
 11
7.169584780614
 21
-16.758285470116
 31
0.0
  0
LINE
  5
1A7
100
AcDbEntity
  8
Exterior View
370
           0
  6
Continuous
 62
           7
100
AcDbLine
 10
7.519541597534
 20
-16.479010537016
 30
0.0
 11
7.398968179102
 21
-16.834132044575
 31
0.0
  0
LINE
  5
1A8
100
AcDbEntity
  8
Exterior View
370
           0
  6
Continuous
 62
           7
100
AcDbLine
 10
7.549466638525
 20
-17.048385834504
 30
0.0
 11
7.559509033152
 21
-17.01880825127
 31
0.0
1001
TCAD
1000
TCW_CUSTOM_DATA
1002
{
1000
#$AUX@_ToolInfo Properties
1070
           8
1000
Insert^JLine^JSingle@Line Single
1002
}
  0
LINE
  5
1A9
100
AcDbEntity
  8
Exterior View
370
           0
  6
Continuous
 62
           7
100
AcDbLine
 10
7.518574332352
 20
-16.478902199077
 30
0.0
 11
7.518574332352
 21
-16.478902199077
 31
0.0
1001
TCAD
1000
TCW_CUSTOM_DATA
1002
{
1000
#$AUX@_ToolInfo Properties
1070
           8
1000
Insert^JLine^JPerpendicular@Line Perpendicular
1002
}
  0
ARC
  5
1AA
100
AcDbEntity
  8
Exterior View
370
           0
  6
Continuous
 62
           7
100
AcDbCircle
 10
8.81305168205
 20
-11.675740820507
 30
0.0
 40
4.09375
100
AcDbArc
 50
-111.691278148893
 51
-68.308720309768
  0
ARC
  5
1AB
100
AcDbEntity
  8
Hidden
370
           0
  6
HIDDEN
 62
           7
 48
0.20000000298
100
AcDbCircle
 10
8.81305168205
 20
-11.675740820507
 30
0.0
 40
5.09375
100
AcDbArc
 50
-107.901105496892
 51
-105.158455711025
  0
ARC
  5
1AC
100
AcDbEntity
  8
Exterior View
370
           0
  6
Continuous
 62
           7
100
AcDbCircle
 10
8.81305168205
 20
-11.675740820507
 30
0.0
 40
5.09375
100
AcDbArc
 50
-105.158455711025
 51
-96.853461830431
  0
ARC
  5
1AD
100
AcDbEntity
  8
Hidden
370
           0
  6
HIDDEN
 62
           7
 48
0.20000000298
100
AcDbCircle
 10
8.81305168205
 20
-11.675740820507
 30
0.0
 40
5.09375
100
AcDbArc
 50
-96.853461830431
 51
-94.135103665559
  0
ARC
  5
1AE
100
AcDbEntity
  8
Exterior View
370
           0
  6
Continuous
 62
           7
100
AcDbCircle
 10
8.81305168205
 20
-11.675740820507
 30
0.0
 40
5.09375
100
AcDbArc
 50
-94.135103665559
 51
-85.877234353125
  0
ARC
  5
1AF
100
AcDbEntity
  8
Hidden
370
           0
  6
HIDDEN
 62
           7
 48
0.20000000298
100
AcDbCircle
 10
8.81305168205
 20
-11.675740820507
 30
0.0
 40
5.09375
100
AcDbArc
 50
-85.877234353125
 51
-83.158863442958
  0
ARC
  5
1B0
100
AcDbEntity
  8
Exterior View
370
           0
  6
Continuous
 62
           7
100
AcDbCircle
 10
8.81305168205
 20
-11.675740820507
 30
0.0
 40
5.09375
100
AcDbArc
 50
-83.158863442958
 51
-74.853319549832
  0
ARC
  5
1B1
100
AcDbEntity
  8
Hidden
370
           0
  6
HIDDEN
 62
           7
 48
0.20000000298
100
AcDbCircle
 10
8.81305168205
 20
-11.675740820507
 30
0.0
 40
5.09375
100
AcDbArc
 50
-74.853319549832
 51
-72.098894502863
  0
ARC
  5
1B2
100
AcDbEntity
  8
Exterior View
370
           0
  6
Continuous
 62
           7
100
AcDbCircle
 10
7.184478259419
 20
-15.769979170872
 30
0.0
 40
0.3125
100
AcDbArc
 50
68.308721850669
 51
154.241777110657
  0
ARC
  5
1B3
100
AcDbEntity
  8
Exterior View
370
           0
  6
Continuous
 62
           7
100
AcDbCircle
 10
6.241110110209
 20
-16.718334829479
 30
0.0
 40
0.125
100
AcDbArc
 50
-126.078581330053
 51
-38.600729569765
  0
ARC
  5
1B4
100
AcDbEntity
  8
Exterior View
370
           0
  6
Continuous
 62
           7
100
AcDbCircle
 10
6.241110110209
 20
-16.718334829479
 30
0.0
 40
0.125
100
AcDbArc
 50
-38.600729569764
 51
-25.758213229997
  0
ARC
  5
1B5
100
AcDbEntity
  8
Exterior View
370
           0
  6
Continuous
 62
           7
100
AcDbCircle
 10
6.991674169292
 20
-17.319511711837
 30
0.0
 40
0.836644639887
100
AcDbArc
 50
72.022592695172
 51
141.32030229152
  0
LINE
  5
1B6
100
AcDbEntity
  8
Exterior View
370
           0
  6
Continuous
 62
           7
100
AcDbLine
 10
10.723073817177
 20
-15.634174634002
 30
0.0
 11
11.272413760961
 21
-16.77265662779
 31
0.0
  0
ARC
  5
1B7
100
AcDbEntity
  8
Exterior View
370
           0
  6
Continuous
 62
           7
100
AcDbCircle
 10
10.441625104681
 20
-15.769979170872
 30
0.0
 40
0.3125
100
AcDbArc
 50
25.758222889344
 51
111.691278149331
  0
ARC
  5
1B8
100
AcDbEntity
  8
Exterior View
370
           0
  6
Continuous
 62
           7
100
AcDbCircle
 10
11.38499325389
 20
-16.718334829479
 30
0.0
 40
0.125
100
AcDbArc
 50
-141.399270430234
 51
-53.921418669948
  0
ARC
  5
1B9
100
AcDbEntity
  8
Exterior View
370
           0
  6
Continuous
 62
           7
100
AcDbCircle
 10
11.38499325389
 20
-16.718334829479
 30
0.0
 40
0.125
100
AcDbArc
 50
-154.241786770003
 51
-141.399270430235
  0
ARC
  5
1BA
100
AcDbEntity
  8
Exterior View
370
           0
  6
Continuous
 62
           7
100
AcDbCircle
 10
10.634429194807
 20
-17.319511711837
 30
0.0
 40
0.836644639887
100
AcDbArc
 50
38.67969770848
 51
107.977407304828
  0
LINE
  5
1BB
100
AcDbEntity
  8
Hidden
370
           0
  6
HIDDEN
 62
           7
 48
0.20000000298
100
AcDbLine
 10
10.0925
 20
-10.785362381369
 30
0.0
 11
7.5225
 21
-10.785362381369
 31
0.0
  0
ARC
  5
1BC
100
AcDbEntity
  8
Hidden
370
           0
  6
HIDDEN
 62
           7
 48
0.20000000298
100
AcDbCircle
 10
7.5325
 20
-10.425362381369
 30
0.0
 40
0.36
100
AcDbArc
 50
90.0
 51
270.0
1001
TCAD
1000
TCW_CUSTOM_DATA
1002
{
1000
#$AUX@_ToolInfo Properties
1070
           8
1000
Insert^JArc^JTanToEntities@Arc TanToEntities
1002
}
  0
ARC
  5
1BD
100
AcDbEntity
  8
Hidden
370
           0
  6
HIDDEN
 62
           7
 48
0.20000000298
100
AcDbCircle
 10
10.0925
 20
-10.425362381369
 30
0.0
 40
0.36
100
AcDbArc
 50
-90.0
 51
90.0
1001
TCAD
1000
TCW_CUSTOM_DATA
1002
{
1000
#$AUX@_ToolInfo Properties
1070
           8
1000
Insert^JArc^JTanToEntities@Arc TanToEntities
1002
}
  0
ARC
  5
1BE
100
AcDbEntity
  8
Hidden
370
           0
  6
HIDDEN
 62
           7
 48
0.20000000298
100
AcDbCircle
 10
7.7975
 20
-10.425362381369
 30
0.0
 40
0.36
100
AcDbArc
 50
90.0
 51
269.999995323689
1001
TCAD
1000
TCW_CUSTOM_DATA
1002
{
1000
#$AUX@_ToolInfo Properties
1070
           8
1000
Insert^JArc^JTanToEntities@Arc TanToEntities
1002
}
  0
ARC
  5
1BF
100
AcDbEntity
  8
Hidden
370
           0
  6
HIDDEN
 62
           7
 48
0.20000000298
100
AcDbCircle
 10
9.8275
 20
-10.425362381369
 30
0.0
 40
0.36
100
AcDbArc
 50
-90.0
 51
90.0
1001
TCAD
1000
TCW_CUSTOM_DATA
1002
{
1000
#$AUX@_ToolInfo Properties
1070
           8
1000
Insert^JArc^JTanToEntities@Arc TanToEntities
1002
}
  0
LWPOLYLINE
  5
1C0
100
AcDbEntity
  8
Exterior View
370
           0
  6
Continuous
 62
           7
100
AcDbPolyline
 90
        3
 70
           0
 10
5.40851661281
 20
-13.258143526071
 10
5.560082739748
 20
-12.958050430385
 10
5.608678028329
 20
-12.869672244554
  0
LINE
  5
1C1
100
AcDbEntity
  8
Exterior View
370
           0
  6
Continuous
 62
           7
100
AcDbLine
 10
6.903029546923
 20
-15.634174634002
 30
0.0
 11
6.353689603138
 21
-16.77265662779
 31
0.0
  0
LINE
  5
1C2
100
AcDbEntity
  8
Hidden
370
           0
  6
HIDDEN
 62
           7
 48
0.20000000298
100
AcDbLine
 10
7.048549886074
 20
-14.925285100966
 30
0.0
 11
5.587456735897
 21
-14.925377673717
 31
0.0
1001
TCAD
1000
TCW_CUSTOM_DATA
1002
{
1000
#$AUX@_ToolInfo Properties
1070
           8
1000
Insert^JLine^JPerpendicular@Line Perpendicular
1002
}
  0
ARC
  5
1C3
100
AcDbEntity
  8
Hidden
370
           0
  6
HIDDEN
 62
           7
 48
0.20000000298
100
AcDbCircle
 10
7.949488370247
 20
-14.374043936122
 30
0.0
 40
2.525206514342
100
AcDbArc
 50
156.439963997559
 51
190.231381810323
  0
ARC
  5
1C4
100
AcDbEntity
  8
Hidden
370
           0
  6
HIDDEN
 62
           7
 48
0.20000000298
100
AcDbCircle
 10
5.587448816078
 20
-14.800377673968
 30
0.0
 40
0.125
100
AcDbArc
 50
-169.768618189677
 51
-89.996363665566
1001
TCAD
1000
TCW_CUSTOM_DATA
1002
{
1000
#$AUX@_ToolInfo Properties
1070
           8
1000
Insert^JArc^JTanToEntities@Arc TanToEntities
1002
}
  0
ARC
  5
1C5
100
AcDbEntity
  8
Hidden
370
           0
  6
HIDDEN
 62
           7
 48
0.20000000298
100
AcDbCircle
 10
7.048541953084
 20
-14.800285101218
 30
0.0
 40
0.125
100
AcDbArc
 50
-89.996378570793
 51
0.003622541399
1001
TCAD
1000
TCW_CUSTOM_DATA
1002
{
1000
#$AUX@_ToolInfo Properties
1070
           8
1000
Insert^JArc^JTanToEntities@Arc TanToEntities
1002
}
  0
ARC
  5
1C6
100
AcDbEntity
  8
Hidden
370
           0
  6
HIDDEN
 62
           7
 48
0.20000000298
100
AcDbCircle
 10
5.937278939972
 20
-13.050355505724
 30
0.0
 40
0.125
100
AcDbArc
 50
90.003622983759
 51
151.195530164149
1001
TCAD
1000
TCW_CUSTOM_DATA
1002
{
1000
#$AUX@_ToolInfo Properties
1070
           8
1000
Insert^JArc^JTanToEntities@Arc TanToEntities
1002
}
  0
CIRCLE
  5
1C7
100
AcDbEntity
  8
Hidden
370
           0
  6
HIDDEN
 62
           7
 48
0.20000000298
100
AcDbCircle
 10
6.218738282356
 20
-13.4375
 30
0.0
 40
0.46865625503
1001
TCAD
1000
TCW_CUSTOM_DATA
1002
{
1000
#$AUX@_ToolInfo Properties
1070
           8
1000
Insert^JCircle^JCenterAndPoint@Circle CenterAndPoint
1002
}
  0
LINE
  5
1C8
100
AcDbEntity
  8
Hidden
370
           0
  6
HIDDEN
 62
           7
 48
0.20000000298
100
AcDbLine
 10
6.999746067753
 20
-13.812604061799
 30
0.0
 11
6.499846075524
 21
-13.812489458518
 31
0.0
1001
TCAD
1000
TCW_CUSTOM_DATA
1002
{
1000
#$AUX@_ToolInfo Properties
1070
           8
1000
Insert^JLine^JPerpendicular@Line Perpendicular
1002
}
  0
LINE
  5
1C9
100
AcDbEntity
  8
Hidden
370
           0
  6
HIDDEN
 62
           7
 48
0.20000000298
100
AcDbLine
 10
6.999917972675
 20
-13.062754073455
 30
0.0
 11
6.500017980445
 21
-13.062639470174
 31
0.0
1001
TCAD
1000
TCW_CUSTOM_DATA
1002
{
1000
#$AUX@_ToolInfo Properties
1070
           8
1000
Insert^JLine^JPerpendicular@Line Perpendicular
1002
}
  0
LINE
  5
1CA
100
AcDbEntity
  8
Hidden
370
           0
  6
HIDDEN
 62
           7
 48
0.20000000298
100
AcDbLine
 10
6.999746067753
 20
-13.812604061799
 30
0.0
 11
6.999917972675
 21
-13.062754073455
 31
0.0
1001
TCAD
1000
TCW_CUSTOM_DATA
1002
{
1000
#$AUX@_ToolInfo Properties
1070
           8
1000
Insert^JLine^JPerpendicular@Line Perpendicular
1002
}
  0
CIRCLE
  5
1CB
100
AcDbEntity
  8
Hidden
370
           0
  6
HIDDEN
 62
           7
 48
0.20000000298
100
AcDbCircle
 10
6.218738282356
 20
-13.4375
 30
0.0
 40
0.25
1001
TCAD
1000
TCW_CUSTOM_DATA
1002
{
1000
#$AUX@_ToolInfo Properties
1070
           8
1000
Insert^JCircle^JCenterAndPoint@Circle CenterAndPoint
1002
}
  0
CIRCLE
  5
1CC
100
AcDbEntity
  8
Hidden
370
           0
  6
HIDDEN
 62
           7
 48
0.20000000298
100
AcDbCircle
 10
5.968738282356
 20
-14.4375
 30
0.0
 40
0.46865625503
1001
TCAD
1000
TCW_CUSTOM_DATA
1002
{
1000
#$AUX@_ToolInfo Properties
1070
           8
1000
Insert^JCircle^JCenterAndPoint@Circle CenterAndPoint
1002
}
  0
LINE
  5
1CD
100
AcDbEntity
  8
Hidden
370
           0
  6
HIDDEN
 62
           7
 48
0.20000000298
100
AcDbLine
 10
6.749746067753
 20
-14.812604061799
 30
0.0
 11
6.249846075524
 21
-14.812489458518
 31
0.0
1001
TCAD
1000
TCW_CUSTOM_DATA
1002
{
1000
#$AUX@_ToolInfo Properties
1070
           8
1000
Insert^JLine^JPerpendicular@Line Perpendicular
1002
}
  0
LINE
  5
1CE
100
AcDbEntity
  8
Hidden
370
           0
  6
HIDDEN
 62
           7
 48
0.20000000298
100
AcDbLine
 10
6.749917972675
 20
-14.062754073455
 30
0.0
 11
6.250017980445
 21
-14.062639470174
 31
0.0
1001
TCAD
1000
TCW_CUSTOM_DATA
1002
{
1000
#$AUX@_ToolInfo Properties
1070
           8
1000
Insert^JLine^JPerpendicular@Line Perpendicular
1002
}
  0
LINE
  5
1CF
100
AcDbEntity
  8
Hidden
370
           0
  6
HIDDEN
 62
           7
 48
0.20000000298
100
AcDbLine
 10
6.749746067753
 20
-14.812604061799
 30
0.0
 11
6.749917972675
 21
-14.062754073455
 31
0.0
1001
TCAD
1000
TCW_CUSTOM_DATA
1002
{
1000
#$AUX@_ToolInfo Properties
1070
           8
1000
Insert^JLine^JPerpendicular@Line Perpendicular
1002
}
  0
CIRCLE
  5
1D0
100
AcDbEntity
  8
Hidden
370
           0
  6
HIDDEN
 62
           7
 48
0.20000000298
100
AcDbCircle
 10
5.968738282356
 20
-14.4375
 30
0.0
 40
0.25
1001
TCAD
1000
TCW_CUSTOM_DATA
1002
{
1000
#$AUX@_ToolInfo Properties
1070
           8
1000
Insert^JCircle^JCenterAndPoint@Circle CenterAndPoint
1002
}
  0
LWPOLYLINE
  5
1D1
100
AcDbEntity
  8
Hidden
370
           0
  6
HIDDEN
 62
           7
 48
0.20000000298
100
AcDbPolyline
 90
        3
 70
           0
 10
5.634778648253
 20
-13.364694223199
 10
5.781260763956
 20
-13.074667206925
 10
5.82774530303
 20
-12.990127751506
  0
ARC
  5
1D2
100
AcDbEntity
  8
Exterior View
370
           0
  6
Continuous
 62
           7
100
AcDbCircle
 10
7.048541953084
 20
-14.800285101218
 30
0.0
 40
0.375
100
AcDbArc
 50
-89.996378570793
 51
0.003622541399
  0
LINE
  5
1D3
100
AcDbEntity
  8
Exterior View
370
           0
  6
Continuous
 62
           7
 48
0.20000000298
100
AcDbLine
 10
7.04840735364
 20
-12.675285105481
 30
0.0
 11
5.937255189639
 21
-12.675355506476
 31
0.0
  0
LINE
  5
1D4
100
AcDbEntity
  8
Exterior View
370
           0
  6
Continuous
 62
           7
 48
0.20000000298
100
AcDbLine
 10
7.423431074858
 20
-13.050261302716
 30
0.0
 11
7.423541952333
 21
-14.800261360293
 31
0.0
  0
LINE
  5
1D5
100
AcDbEntity
  8
Exterior View
370
           0
  6
Continuous
 62
           7
100
AcDbLine
 10
7.048565725713
 20
-15.175285100464
 30
0.0
 11
5.587472522524
 21
-15.175377673218
 31
0.0
  0
ARC
  5
1D6
100
AcDbEntity
  8
Hidden
370
           0
  6
HIDDEN
 62
           7
 48
0.20000000298
100
AcDbCircle
 10
7.048431075613
 20
-13.05028510473
 30
0.0
 40
0.125
100
AcDbArc
 50
0.003627346138
 51
90.00362122333
1001
TCAD
1000
TCW_CUSTOM_DATA
1002
{
1000
#$AUX@_ToolInfo Properties
1070
           8
1000
Insert^JArc^JTanToEntities@Arc TanToEntities
1002
}
  0
LINE
  5
1D7
100
AcDbEntity
  8
Hidden
370
           0
  6
HIDDEN
 62
           7
 48
0.20000000298
100
AcDbLine
 10
7.04842317533
 20
-12.92528510498
 30
0.0
 11
5.937271029278
 21
-12.925355505974
 31
0.0
1001
TCAD
1000
TCW_CUSTOM_DATA
1002
{
1000
#$AUX@_ToolInfo Properties
1070
           8
1000
Insert^JLine^JPerpendicular@Line Perpendicular
1002
}
  0
LINE
  5
1D8
100
AcDbEntity
  8
Hidden
370
           0
  6
HIDDEN
 62
           7
 48
0.20000000298
100
AcDbLine
 10
7.173431075362
 20
-13.050277170363
 30
0.0
 11
7.173541952834
 21
-14.800277199932
 31
0.0
1001
TCAD
1000
TCW_CUSTOM_DATA
1002
{
1000
#$AUX@_ToolInfo Properties
1070
           8
1000
Insert^JLine^JPerpendicular@Line Perpendicular
1002
}
  0
ARC
  5
1D9
100
AcDbEntity
  8
Exterior View
370
           0
  6
Continuous
 62
           7
100
AcDbCircle
 10
7.048431075613
 20
-13.05028510473
 30
0.0
 40
0.375
100
AcDbArc
 50
0.003627346136
 51
90.003621223329
  0
ARC
  5
1DA
100
AcDbEntity
  8
Exterior View
370
           0
  6
Continuous
 62
           7
100
AcDbCircle
 10
5.937278939972
 20
-13.050355505724
 30
0.0
 40
0.375
100
AcDbArc
 50
90.003622983759
 51
151.195530164149
  0
ARC
  5
1DB
100
AcDbEntity
  8
Exterior View
370
           0
  6
Continuous
 62
           7
100
AcDbCircle
 10
7.949488370247
 20
-14.374043936122
 30
0.0
 40
2.775206514342
100
AcDbArc
 50
156.439963997559
 51
190.231381810323
  0
ARC
  5
1DC
100
AcDbEntity
  8
Exterior View
370
           0
  6
Continuous
 62
           7
100
AcDbCircle
 10
5.587448816078
 20
-14.800377673968
 30
0.0
 40
0.375
100
AcDbArc
 50
-169.768618189677
 51
-89.996363665567
  0
LINE
  5
1DD
100
AcDbEntity
  8
Hidden
370
           0
  6
HIDDEN
 62
           7
 48
0.20000000298
100
AcDbLine
 10
9.999988120647
 20
-10.875011880105
 30
0.0
 11
10.000011880105
 21
-11.250011879353
 31
0.0
1001
TCAD
1000
TCW_CUSTOM_DATA
1002
{
1000
#$AUX@_ToolInfo Properties
1070
           8
1000
Insert^JLine^JSingle@Line Single
1002
}
  0
LINE
  5
1DE
100
AcDbEntity
  8
Hidden
370
           0
  6
HIDDEN
 62
           7
 48
0.20000000298
100
AcDbLine
 10
10.000011880105
 20
-11.250011879353
 30
0.0
 11
10.375011879353
 21
-11.249988119895
 31
0.0
1001
TCAD
1000
TCW_CUSTOM_DATA
1002
{
1000
#$AUX@_ToolInfo Properties
1070
           8
1000
Insert^JLine^JSingle@Line Single
1002
}
  0
LINE
  5
1DF
100
AcDbEntity
  8
Hidden
370
           0
  6
HIDDEN
 62
           7
 48
0.20000000298
100
AcDbLine
 10
10.375011879353
 20
-11.249988119895
 30
0.0
 11
10.374988119895
 21
-10.874988120647
 31
0.0
1001
TCAD
1000
TCW_CUSTOM_DATA
1002
{
1000
#$AUX@_ToolInfo Properties
1070
           8
1000
Insert^JLine^JSingle@Line Single
1002
}
  0
CIRCLE
  5
1E0
100
AcDbEntity
  8
Exterior View
370
           0
  6
Continuous
 62
           7
 48
0.20000000298
100
AcDbCircle
 10
10.249999999875
 20
-11.06249604009
 30
0.0
 40
0.0625
1001
TCAD
1000
TCW_CUSTOM_DATA
1002
{
1000
#$AUX@_ToolInfo Properties
1070
           8
1000
Insert^JCircle^JCenterAndPoint@Circle CenterAndPoint
1002
}
  0
LINE
  5
1E1
100
AcDbEntity
  8
Hidden
370
           0
  6
HIDDEN
 62
           7
 48
0.20000000298
100
AcDbLine
 10
9.999988120648
 20
-10.875011880105
 30
0.0
 11
10.374988119895
 21
-10.874988120647
 31
0.0
1001
TCAD
1000
TCW_CUSTOM_DATA
1002
{
1000
#$AUX@_ToolInfo Properties
1070
           8
1000
Insert^JLine^JSingle@Line Single
1002
}
  0
ARC
  5
1E2
100
AcDbEntity
  8
Hidden
370
           0
  6
HIDDEN
 62
           7
 48
0.20000000298
100
AcDbCircle
 10
10.3275
 20
-12.440362381369
 30
0.0
 40
0.125
100
AcDbArc
 50
-90.0
 51
0.0
1001
TCAD
1000
TCW_CUSTOM_DATA
1002
{
1000
#$AUX@_ToolInfo Properties
1070
           8
1000
Insert^JArc^JTanToEntities@Arc TanToEntities
1002
}
  0
ARC
  5
1E3
100
AcDbEntity
  8
Hidden
370
           0
  6
HIDDEN
 62
           7
 48
0.20000000298
100
AcDbCircle
 10
8.054639076665
 20
-12.440362381369
 30
0.0
 40
0.125
100
AcDbArc
 50
-135.000000000001
 51
-90.0
1001
TCAD
1000
TCW_CUSTOM_DATA
1002
{
1000
#$AUX@_ToolInfo Properties
1070
           8
1000
Insert^JArc^JTanToEntities@Arc TanToEntities
1002
}
  0
ARC
  5
1E4
100
AcDbEntity
  8
Hidden
370
           0
  6
HIDDEN
 62
           7
 48
0.20000000298
100
AcDbCircle
 10
7.2975
 20
-11.683223304703
 30
0.0
 40
0.125
100
AcDbArc
 50
180.0
 51
225.000000000001
1001
TCAD
1000
TCW_CUSTOM_DATA
1002
{
1000
#$AUX@_ToolInfo Properties
1070
           8
1000
Insert^JArc^JTanToEntities@Arc TanToEntities
1002
}
  0
LINE
  5
1E5
100
AcDbEntity
  8
Hidden
370
           0
  6
HIDDEN
 62
           7
 48
0.20000000298
100
AcDbLine
 10
7.966250729017
 20
-12.528750729017
 30
0.0
 11
7.209111652352
 21
-11.771611652352
 31
0.0
1001
TCAD
1000
TCW_CUSTOM_DATA
1002
{
1000
#$AUX@_ToolInfo Properties
1070
           8
1000
Insert^JLine^JSingle@Line Single
1002
}
  0
LINE
  5
1E6
100
AcDbEntity
  8
Hidden
370
           0
  6
HIDDEN
 62
           7
 48
0.20000000298
100
AcDbLine
 10
10.327500009125
 20
-12.565362381369
 30
0.0
 11
8.054639076665
 21
-12.565362381369
 31
0.0
1001
TCAD
1000
TCW_CUSTOM_DATA
1002
{
1000
#$AUX@_ToolInfo Properties
1070
           8
1000
Insert^JLine^JPerpendicular@Line Perpendicular
1002
}
  0
LINE
  5
1E7
100
AcDbEntity
  8
Exterior View
370
           0
  6
Continuous
 62
           7
 48
0.20000000298
100
AcDbLine
 10
6.9225
 20
-11.683223304703
 30
0.0
 11
6.9225
 21
-10.190362329248
 31
0.0
  0
LINE
  5
1E8
100
AcDbEntity
  8
Exterior View
370
           0
  6
Continuous
 62
           7
100
AcDbLine
 10
7.789474033721
 20
-12.705527424314
 30
0.0
 11
7.032334957055
 21
-11.948388347648
 31
0.0
  0
LINE
  5
1E9
100
AcDbEntity
  8
Exterior View
370
           0
  6
Continuous
 62
           7
100
AcDbLine
 10
10.327500009125
 20
-12.815362381369
 30
0.0
 11
8.054639076665
 21
-12.815362381369
 31
0.0
  0
ARC
  5
1EA
100
AcDbEntity
  8
Exterior View
370
           0
  6
Continuous
 62
           7
100
AcDbCircle
 10
8.054639076665
 20
-12.440362381369
 30
0.0
 40
0.375
100
AcDbArc
 50
-135.000000000001
 51
-90.0
  0
ARC
  5
1EB
100
AcDbEntity
  8
Exterior View
370
           0
  6
Continuous
 62
           7
100
AcDbCircle
 10
7.2975
 20
-11.683223304703
 30
0.0
 40
0.375
100
AcDbArc
 50
180.0
 51
225.0
  0
ARC
  5
1EC
100
AcDbEntity
  8
Exterior View
370
           0
  6
Continuous
 62
           7
100
AcDbCircle
 10
10.3275
 20
-12.440362381369
 30
0.0
 40
0.375
100
AcDbArc
 50
-90.0
 51
0.0
  0
CIRCLE
  5
1ED
100
AcDbEntity
  8
Exterior View
370
           0
  6
Continuous
 62
           7
100
AcDbCircle
 10
10.25
 20
-11.0625
 30
0.0
 40
0.09375
1001
TCAD
1000
TCW_CUSTOM_DATA
1002
{
1000
#$AUX@_ToolInfo Properties
1070
           8
1000
Insert^JCircle^JCenterAndPoint@Circle CenterAndPoint
1002
}
  0
ELLIPSE
  5
1EE
100
AcDbEntity
  8
Exterior View
370
           0
  6
Continuous
 62
           7
100
AcDbEllipse
 10
15.975142163051
 20
-17.261977345317
 30
0.0
 11
11.743786559070658
 21
0.0007823981344457
 31
0.0
210
0.0
220
0.0
230
1.0
 40
0.887856574859
 41
2.6054960730235837
 42
2.7362776711528922
  0
ELLIPSE
  5
1EF
100
AcDbEntity
  8
Exterior View
370
           0
  6
Continuous
 62
           7
100
AcDbEllipse
 10
9.546766326896
 20
-9.392920827136
 30
0.0
 11
0.000155294576494
 21
-2.3309697178759854
 31
0.0
210
0.0
220
0.0
230
1.0
 40
0.97777254852
 41
1.5707963267948624
 42
3.1415926535897589
  0
ELLIPSE
  5
1F0
100
AcDbEntity
  8
Exterior View
370
           0
  6
Continuous
 62
           7
100
AcDbEllipse
 10
9.28933605356
 20
-9.392937977734
 30
0.0
 11
2.5365884749065231
 21
0.0001689933720493
 31
0.0
210
0.0
220
0.0
230
1.0
 40
0.856080560458
 41
-0.415184755680832
 42
0.0
  0
ELLIPSE
  5
1F1
100
AcDbEntity
  8
Exterior View
370
           0
  6
Continuous
 62
           7
100
AcDbEllipse
 10
8.337631211511
 20
-9.393001382505
 30
0.0
 11
2.5368167775424362
 21
0.0001690085820984
 31
0.0
210
0.0
220
0.0
230
1.0
 40
0.856003516877
 41
-3.1220295090074051
 42
-2.7264078979090578
  0
ELLIPSE
  5
1F2
100
AcDbEntity
  8
Exterior View
370
           0
  6
Continuous
 62
           7
100
AcDbEllipse
 10
4.437702162095
 20
-10.974677770466
 30
0.0
 11
0.0000000000000001
 21
-1.7490939620901387
 31
0.0
210
0.0
220
0.0
230
1.0
 40
0.986408494834
 41
0.9883450273424114
 42
1.9860470960488315
  0
ELLIPSE
  5
1F3
100
AcDbEntity
  8
Exterior View
370
           0
  6
Continuous
 62
           7
100
AcDbEllipse
 10
5.685376241379
 20
-7.002988608324
 30
0.0
 11
0.0001602386378132
 21
-2.4051800126425436
 31
0.0
210
0.0
220
0.0
230
1.0
 40
0.995860810564
 41
0.0606181685239131
 42
1.546044136202039
  0
ELLIPSE
  5
1F4
100
AcDbEntity
  8
Exterior View
370
           0
  6
Continuous
 62
           7
100
AcDbEllipse
 10
1.652664761995
 20
-17.26293154178
 30
0.0
 11
11.743786559070662
 21
0.000782398134816
 31
0.0
210
0.0
220
0.0
230
1.0
 40
0.887856574859
 41
0.4053149824369032
 42
0.5360965805662119
  0
ELLIPSE
  5
1F5
100
AcDbEntity
  8
Exterior View
370
           0
  6
Continuous
 62
           7
100
AcDbEllipse
 10
13.189266911751
 20
-10.974094721046
 30
0.0
 11
0.0000000000000001
 21
-1.7490939620901413
 31
0.0
210
0.0
220
0.0
230
1.0
 40
0.986408494834
 41
4.2972702380986103
 42
5.2949728171669399
  0
ARC
  5
1F6
100
AcDbEntity
  8
Exterior View
370
           0
  6
Continuous
 62
           7
100
AcDbCircle
 10
9.677737602412
 20
-14.373922627569
 30
0.0
 40
3.025206514342
100
AcDbArc
 50
-53.917601583758
 51
23.847093600896
  0
ARC
  5
1F7
100
AcDbEntity
  8
Exterior View
370
           0
  6
Continuous
 62
           7
100
AcDbCircle
 10
7.949684449006
 20
-14.374037754454
 30
0.0
 40
3.025206514342
100
AcDbArc
 50
156.160540752925
 51
233.925235846627
  0
ARC
  5
1F8
100
AcDbEntity
  8
Exterior View
370
           0
  6
Continuous
 62
           7
100
AcDbCircle
 10
5.832544481939
 20
-9.43493331367
 30
0.0
 40
0.03125
100
AcDbArc
 50
93.491374303602
 51
181.313196694305
1001
TCAD
1000
TCW_CUSTOM_DATA
1002
{
1000
#$AUX@_ToolInfo Properties
1070
           8
1000
Insert^JArc^JTanToEntities@Arc TanToEntities
1002
}
  0
LINE
  5
1F9
100
AcDbEntity
  8
Exterior View
370
           0
  6
Continuous
 62
           7
100
AcDbLine
 10
8.079871019409
 20
-7.062356477024
 30
0.0
 11
8.25
 21
-0.124999999999
 31
0.0
1001
TCAD
1000
TCW_CUSTOM_DATA
1002
{
1000
#$AUX@_ToolInfo Properties
1070
           8
1000
Insert^JLine^JSingle@Line Single
1002
}
  0
LINE
  5
1FA
100
AcDbEntity
  8
Exterior View
370
           0
  6
Continuous
 62
           7
100
AcDbLine
 10
9.54661103232
 20
-7.06195110926
 30
0.0
 11
9.375
 21
-0.124999999999
 31
0.0
1001
TCAD
1000
TCW_CUSTOM_DATA
1002
{
1000
#$AUX@_ToolInfo Properties
1070
           8
1000
Insert^JLine^JSingle@Line Single
1002
}
  0
LINE
  5
1FB
100
AcDbEntity
  8
Hidden
370
           0
  6
HIDDEN
 62
           7
 48
0.20000000298
100
AcDbLine
 10
9.54661103232
 20
-7.06195110926
 30
0.0
 11
9.063241016317
 21
-7.062084699822
 31
0.0
1001
TCAD
1000
TCW_CUSTOM_DATA
1002
{
1000
#$AUX@_ToolInfo Properties
1070
           8
1000
Insert^JLine^JSingle@Line Single
1002
}
  0
LINE
  5
1FC
100
AcDbEntity
  8
Hidden
370
           0
  6
HIDDEN
 62
           7
 48
0.20000000298
100
AcDbLine
 10
8.563241035412
 20
-7.062222886462
 30
0.0
 11
8.563724688652
 21
-8.812222819627
 31
0.0
1001
TCAD
1000
TCW_CUSTOM_DATA
1002
{
1000
#$AUX@_ToolInfo Properties
1070
           8
1000
Insert^JLine^JPerpendicular@Line Perpendicular
1002
}
  0
LINE
  5
1FD
100
AcDbEntity
  8
Hidden
370
           0
  6
HIDDEN
 62
           7
 48
0.20000000298
100
AcDbLine
 10
9.063241016317
 20
-7.062084699822
 30
0.0
 11
9.063724669556
 21
-8.812084632987
 31
0.0
1001
TCAD
1000
TCW_CUSTOM_DATA
1002
{
1000
#$AUX@_ToolInfo Properties
1070
           8
1000
Insert^JLine^JPerpendicular@Line Perpendicular
1002
}
  0
LINE
  5
1FE
100
AcDbEntity
  8
Hidden
370
           0
  6
HIDDEN
 62
           7
 48
0.20000000298
100
AcDbLine
 10
8.563241035412
 20
-7.062222886462
 30
0.0
 11
8.079871019409
 21
-7.062356477024
 31
0.0
1001
TCAD
1000
TCW_CUSTOM_DATA
1002
{
1000
#$AUX@_ToolInfo Properties
1070
           8
1000
Insert^JLine^JPerpendicular@Line Perpendicular
1002
}
  0
LINE
  5
1FF
100
AcDbEntity
  8
Exterior View
370
           0
  6
Continuous
 62
           7
100
AcDbLine
 10
9.044947752006
 20
-6.562089736496
 30
0.0
 11
8.572799905537
 21
-6.56222022555
 31
0.0
1001
TCAD
1000
TCW_CUSTOM_DATA
1002
{
1000
#$AUX@_ToolInfo Properties
1070
           8
1000
Insert^JLine^JPerpendicular@Line Perpendicular
1002
}
  0
ARC
  5
200
100
AcDbEntity
  8
Exterior View
370
           0
  6
Continuous
 62
           7
100
AcDbCircle
 10
8.579057092849
 20
-7.061226844704
 30
0.0
 40
0.499045847947
100
AcDbArc
 50
89.313259461983
 51
180.129689444624
  0
ARC
  5
201
100
AcDbEntity
  8
Exterior View
370
           0
  6
Continuous
 62
           7
100
AcDbCircle
 10
9.039660516468
 20
-7.069062559622
 30
0.0
 40
0.50700039275
100
AcDbArc
 50
0.803686663152
 51
90.62918787194
  0
LINE
  5
202
100
AcDbEntity
  8
Exterior View
370
           0
  6
Continuous
 62
           7
100
AcDbLine
 10
-4.898471515116
 20
0.645792816401
 30
0.0
 11
-4.975089732901
 21
0.931735897958
 31
0.0
1001
TCAD
1000
TCW_CUSTOM_DATA
1002
{
1000
#$AUX@_ToolInfo Properties
1070
           8
1000
Insert^JLine^JPerpendicular@Line Perpendicular
1002
}
  0
ARC
  5
203
100
AcDbEntity
  8
Exterior View
370
           0
  6
Continuous
 62
           7
100
AcDbCircle
 10
0.5617536191
 20
-1.948172228971
 30
0.0
 40
2.958584317247
100
AcDbArc
 50
78.342338900342
 51
101.657661099658
  0
ARC
  5
204
100
AcDbEntity
  8
Exterior View
370
           0
  6
Continuous
 62
           7
100
AcDbCircle
 10
-2.46787172846
 20
-0.00119045458
 30
0.0
 40
2.467872015585
100
AcDbArc
 50
0.027638396708
 51
18.626390582732
  0
ARC
  5
205
100
AcDbEntity
  8
Exterior View
370
           0
  6
Continuous
 62
           7
100
AcDbCircle
 10
3.618296480074
 20
-0.000883403145
 30
0.0
 40
2.493296636574
100
AcDbArc
 50
161.568111236097
 51
179.979699458086
  0
ARC
  5
206
100
AcDbEntity
  8
Exterior View
370
           0
  6
Continuous
 62
           7
100
AcDbCircle
 10
-0.010810729393
 20
0.826962029004
 30
0.0
 40
0.125
100
AcDbArc
 50
101.657660820847
 51
198.626390582732
1001
TCAD
1000
TCW_CUSTOM_DATA
1002
{
1000
#$AUX@_ToolInfo Properties
1070
           8
1000
Insert^JArc^JTanToEntities@Arc TanToEntities
1002
}
  0
ARC
  5
207
100
AcDbEntity
  8
Exterior View
370
           0
  6
Continuous
 62
           7
100
AcDbCircle
 10
1.134317973791
 20
0.826962027726
 30
0.0
 40
0.125
100
AcDbArc
 50
-18.431888720584
 51
78.342342268312
1001
TCAD
1000
TCW_CUSTOM_DATA
1002
{
1000
#$AUX@_ToolInfo Properties
1070
           8
1000
Insert^JArc^JTanToEntities@Arc TanToEntities
1002
}
  0
ARC
  5
208
100
AcDbEntity
  8
Exterior View
370
           0
  6
Continuous
 62
           7
100
AcDbCircle
 10
8.8117536191
 20
-1.94817222897
 30
0.0
 40
2.958584317247
100
AcDbArc
 50
78.342338900342
 51
101.657661099658
  0
ARC
  5
209
100
AcDbEntity
  8
Exterior View
370
           0
  6
Continuous
 62
           7
100
AcDbCircle
 10
5.78212827154
 20
-0.00119045458
 30
0.0
 40
2.467872015585
100
AcDbArc
 50
0.027638396708
 51
18.626390582732
  0
ARC
  5
20A
100
AcDbEntity
  8
Exterior View
370
           0
  6
Continuous
 62
           7
100
AcDbCircle
 10
11.868296480074
 20
-0.000883403144
 30
0.0
 40
2.493296636574
100
AcDbArc
 50
161.568111236097
 51
179.979699458086
  0
ARC
  5
20B
100
AcDbEntity
  8
Exterior View
370
           0
  6
Continuous
 62
           7
100
AcDbCircle
 10
8.239189270607
 20
0.826962029005
 30
0.0
 40
0.125
100
AcDbArc
 50
101.657660820847
 51
198.626390582732
1001
TCAD
1000
TCW_CUSTOM_DATA
1002
{
1000
#$AUX@_ToolInfo Properties
1070
           8
1000
Insert^JArc^JTanToEntities@Arc TanToEntities
1002
}
  0
ARC
  5
20C
100
AcDbEntity
  8
Exterior View
370
           0
  6
Continuous
 62
           7
100
AcDbCircle
 10
9.384317973791
 20
0.826962027726
 30
0.0
 40
0.125
100
AcDbArc
 50
-18.431888720584
 51
78.342342268313
1001
TCAD
1000
TCW_CUSTOM_DATA
1002
{
1000
#$AUX@_ToolInfo Properties
1070
           8
1000
Insert^JArc^JTanToEntities@Arc TanToEntities
1002
}
  0
LINE
  5
20D
100
AcDbEntity
  8
Exterior View
370
           0
  6
Continuous
 62
           7
100
AcDbLine
 10
-4.290637438937
 20
1.042764468915
 30
0.0
 11
-2.523310029401
 21
1.516318421061
 31
0.0
1001
TCAD
1000
TCW_CUSTOM_DATA
1002
{
1000
#$AUX@_ToolInfo Properties
1070
           8
1000
Insert^JLine^JPerpendicular@Line Perpendicular
1002
}
  0
LINE
  5
20E
100
AcDbEntity
  8
Exterior View
370
           0
  6
Continuous
 62
           7
100
AcDbLine
 10
-4.019884271714
 20
0.032352380638
 30
0.0
 11
-2.795903261493
 21
0.360317103878
 31
0.0
1001
TCAD
1000
TCW_CUSTOM_DATA
1002
{
1000
#$AUX@_ToolInfo Properties
1070
           8
1000
Insert^JLine^JPerpendicular@Line Perpendicular
1002
}
  0
ELLIPSE
  5
20F
100
AcDbEntity
  8
Exterior View
370
           0
  6
Continuous
 62
           7
100
AcDbEllipse
 10
-1.61053721254
 20
-1.410116988436
 30
0.0
 11
0.7927530371619881
 21
-2.9585946125430884
 31
0.0
210
0.0
220
0.0
230
1.0
 40
0.965922465068
 41
2.9381280843190987
 42
3.3450572228604947
  0
ELLIPSE
  5
210
100
AcDbEntity
  8
Exterior View
370
           0
  6
Continuous
 62
           7
100
AcDbEllipse
 10
-5.058624589242
 20
-0.247253178403
 30
0.0
 11
0.6612666146701979
 21
-2.4678806032981884
 31
0.0
210
0.0
220
0.0
230
1.0
 40
0.965922465068
 41
1.5712787078174246
 42
1.8958881702260213
  0
ELLIPSE
  5
211
100
AcDbEntity
  8
Exterior View
370
           0
  6
Continuous
 62
           7
100
AcDbEllipse
 10
0.820080192051
 20
1.328270118167
 30
0.0
 11
0.6680791450380763
 21
-2.4933053127592735
 31
0.0
210
0.0
220
0.0
230
1.0
 40
0.965922465068
 41
4.390691834093241
 42
4.7120346690883572
  0
ELLIPSE
  5
212
100
AcDbEntity
  8
Exterior View
370
           0
  6
Continuous
 62
           7
100
AcDbEllipse
 10
-2.907189474839
 20
1.216836368528
 30
0.0
 11
0.0334937656052608
 21
-0.1250004349755883
 31
0.0
210
0.0
220
0.0
230
1.0
 40
0.965922465068
 41
3.3450572179942295
 42
5.0374808238157254
1001
TCAD
1000
TCW_CUSTOM_DATA
1002
{
1000
#$AUX@_ToolInfo Properties
1070
           8
1000
Insert^JArc^JTanToEntities@Arc TanToEntities
1002
}
  0
ELLIPSE
  5
213
100
AcDbEntity
  8
Exterior View
370
           0
  6
Continuous
 62
           7
100
AcDbEllipse
 10
-1.801080085667
 20
1.513217484727
 30
0.0
 11
0.0334937656052521
 21
-0.1250004349755901
 31
0.0
210
0.0
220
0.0
230
1.0
 40
0.965922465068
 41
1.2490991812594627
 42
2.9381281431012409
1001
TCAD
1000
TCW_CUSTOM_DATA
1002
{
1000
#$AUX@_ToolInfo Properties
1070
           8
1000
Insert^JArc^JTanToEntities@Arc TanToEntities
1002
}
  0
LINE
  5
214
100
AcDbEntity
  8
Exterior View
370
           0
  6
Continuous
 62
           7
100
AcDbLine
 10
-2.675162533208
 20
0.392669484515
 30
0.0
 11
-1.588495978631
 21
0.683840910256
 31
0.0
1001
TCAD
1000
TCW_CUSTOM_DATA
1002
{
1000
#$AUX@_ToolInfo Properties
1070
           8
1000
Insert^JLine^JSingle@Line Single
1002
}
  0
LINE
  5
215
100
AcDbEntity
  8
Exterior View
370
           0
  6
Continuous
 62
           7
100
AcDbLine
 10
-4.914719368758
 20
1.010412088277
 30
0.0
 11
-4.459336105289
 21
1.010412088277
 31
0.0
1001
TCAD
1000
TCW_CUSTOM_DATA
1002
{
1000
#$AUX@_ToolInfo Properties
1070
           8
1000
Insert^JLine^JSingle@Line Single
1002
}
  0
LINE
  5
216
100
AcDbEntity
  8
Hidden
370
           0
  6
HIDDEN
 62
           7
 48
0.20000000298
100
AcDbLine
 10
-4.14069409332
 20
-8.811896326662
 30
0.0
 11
-5.203125
 21
-8.811896326662
 31
0.0
1001
TCAD
1000
TCW_CUSTOM_DATA
1002
{
1000
#$AUX@_ToolInfo Properties
1070
           8
1000
Insert^JLine^JPerpendicular@Line Perpendicular
1002
}
  0
LINE
  5
217
100
AcDbEntity
  8
Hidden
370
           0
  6
HIDDEN
 62
           7
 48
0.20000000298
100
AcDbLine
 10
8.563724688652
 20
-8.812222819627
 30
0.0
 11
9.063724669556
 21
-8.812084632987
 31
0.0
1001
TCAD
1000
TCW_CUSTOM_DATA
1002
{
1000
#$AUX@_ToolInfo Properties
1070
           8
1000
Insert^JLine^JPerpendicular@Line Perpendicular
1002
}
  0
ARC
  5
218
100
AcDbEntity
  8
Hidden
370
           0
  6
HIDDEN
 62
           7
 48
0.20000000298
100
AcDbCircle
 10
-0.952263991948
 20
-10.190371367961
 30
0.0
 40
0.125
100
AcDbArc
 50
90.0
 51
180.004322800947
1001
TCAD
1000
TCW_CUSTOM_DATA
1002
{
1000
#$AUX@_ToolInfo Properties
1070
           8
1000
Insert^JArc^JTanToEntities@Arc TanToEntities
1002
}
  0
ARC
  5
219
100
AcDbEntity
  8
Hidden
370
           0
  6
HIDDEN
 62
           7
 48
0.20000000298
100
AcDbCircle
 10
2.077736016675
 20
-10.190371367961
 30
0.0
 40
0.125
100
AcDbArc
 50
0.004321593529
 51
90.0
1001
TCAD
1000
TCW_CUSTOM_DATA
1002
{
1000
#$AUX@_ToolInfo Properties
1070
           8
1000
Insert^JArc^JTanToEntities@Arc TanToEntities
1002
}
  0
LINE
  5
21A
100
AcDbEntity
  8
Hidden
370
           0
  6
HIDDEN
 62
           7
 48
0.20000000298
100
AcDbLine
 10
1.5775
 20
-10.065371367961
 30
0.0
 11
2.077736026878
 21
-10.065371367961
 31
0.0
  0
LINE
  5
21B
100
AcDbEntity
  8
Hidden
370
           0
  6
HIDDEN
 62
           7
 48
0.20000000298
100
AcDbLine
 10
2.202848666808
 20
-11.68346736295
 30
0.0
 11
2.20273601632
 21
-10.190361937072
 31
0.0
1001
TCAD
1000
TCW_CUSTOM_DATA
1002
{
1000
#$AUX@_ToolInfo Properties
1070
           8
1000
Insert^JLine^JPerpendicular@Line Perpendicular
1002
}
  0
LINE
  5
21C
100
AcDbEntity
  8
Hidden
370
           0
  6
HIDDEN
 62
           7
 48
0.20000000298
100
AcDbLine
 10
-1.077094199901
 20
-12.440853913104
 30
0.0
 11
-1.077263991593
 21
-10.190380794287
 31
0.0
1001
TCAD
1000
TCW_CUSTOM_DATA
1002
{
1000
#$AUX@_ToolInfo Properties
1070
           8
1000
Insert^JLine^JPerpendicular@Line Perpendicular
1002
}
  0
LINE
  5
21D
100
AcDbEntity
  8
Hidden
370
           0
  6
HIDDEN
 62
           7
 48
0.20000000298
100
AcDbLine
 10
-0.952263991948
 20
-10.065371367961
 30
0.0
 11
-0.452500017792
 21
-10.065371367961
 31
0.0
  0
ARC
  5
21E
100
AcDbEntity
  8
Hidden
370
           0
  6
HIDDEN
 62
           7
 48
0.20000000298
100
AcDbCircle
 10
7.2975
 20
-10.190362381369
 30
0.0
 40
0.125
100
AcDbArc
 50
90.0
 51
180.0
1001
TCAD
1000
TCW_CUSTOM_DATA
1002
{
1000
#$AUX@_ToolInfo Properties
1070
           8
1000
Insert^JArc^JTanToEntities@Arc TanToEntities
1002
}
  0
ARC
  5
21F
100
AcDbEntity
  8
Hidden
370
           0
  6
HIDDEN
 62
           7
 48
0.20000000298
100
AcDbCircle
 10
10.3275
 20
-10.190362381369
 30
0.0
 40
0.125
100
AcDbArc
 50
0.0
 51
90.0
1001
TCAD
1000
TCW_CUSTOM_DATA
1002
{
1000
#$AUX@_ToolInfo Properties
1070
           8
1000
Insert^JArc^JTanToEntities@Arc TanToEntities
1002
}
  0
LINE
  5
220
100
AcDbEntity
  8
Hidden
370
           0
  6
HIDDEN
 62
           7
 48
0.20000000298
100
AcDbLine
 10
7.1725
 20
-11.683223304703
 30
0.0
 11
7.1725
 21
-10.190362381369
 31
0.0
1001
TCAD
1000
TCW_CUSTOM_DATA
1002
{
1000
#$AUX@_ToolInfo Properties
1070
           8
1000
Insert^JLine^JPerpendicular@Line Perpendicular
1002
}
  0
LINE
  5
221
100
AcDbEntity
  8
Hidden
370
           0
  6
HIDDEN
 62
           7
 48
0.20000000298
100
AcDbLine
 10
10.4525
 20
-12.440362390494
 30
0.0
 11
10.4525
 21
-10.190362372632
 31
0.0
1001
TCAD
1000
TCW_CUSTOM_DATA
1002
{
1000
#$AUX@_ToolInfo Properties
1070
           8
1000
Insert^JLine^JPerpendicular@Line Perpendicular
1002
}
  0
LINE
  5
222
100
AcDbEntity
  8
Hidden
370
           0
  6
HIDDEN
 62
           7
 48
0.20000000298
100
AcDbLine
 10
7.297499992549
 20
-10.065362381369
 30
0.0
 11
10.327500008737
 21
-10.065362381369
 31
0.0
  0
ARC
  5
223
100
AcDbEntity
  8
Exterior View
370
           0
  6
Continuous
 62
           7
 48
0.20000000298
100
AcDbCircle
 10
7.2975
 20
-10.190362381369
 30
0.0
 40
0.375
100
AcDbArc
 50
90.0
 51
180.0
  0
ARC
  5
224
100
AcDbEntity
  8
Exterior View
370
           0
  6
Continuous
 62
           7
 48
0.20000000298
100
AcDbCircle
 10
10.3275
 20
-10.190362381369
 30
0.0
 40
0.375
100
AcDbArc
 50
0.0
 51
90.0
  0
LINE
  5
225
100
AcDbEntity
  8
Exterior View
370
           0
  6
Continuous
 62
           7
100
AcDbLine
 10
10.70232599006
 20
-10.178939720749
 30
0.0
 11
10.702469573192
 21
-12.445139323951
 31
0.0
1001
TCAD
1000
TCW_CUSTOM_DATA
1002
{
1000
#$AUX@_ToolInfo Properties
1070
           8
1000
Insert^JLine^JPerpendicular@Line Perpendicular
1002
}
  0
LINE
  5
226
100
AcDbEntity
  8
Exterior View
370
           0
  6
Continuous
 62
           7
100
AcDbLine
 10
7.2975
 20
-9.815362381369
 30
0.0
 11
10.3275
 21
-9.815362381369
 31
0.0
1001
TCAD
1000
TCW_CUSTOM_DATA
1002
{
1000
#$AUX@_ToolInfo Properties
1070
           8
1000
Insert^JLine^JSingle@Line Single
1002
}
  0
ARC
  5
227
100
AcDbEntity
  8
Exterior View
370
           0
  6
Continuous
 62
           7
100
AcDbCircle
 10
-4.914719368758
 20
0.947912088277
 30
0.0
 40
0.0625
100
AcDbArc
 50
90.0
 51
195.000000000001
  0
ARC
  5
228
100
AcDbEntity
  8
Exterior View
370
           0
  6
Continuous
 62
           7
100
AcDbCircle
 10
-4.459336103972
 20
0.947912088277
 30
0.0
 40
0.0625
100
AcDbArc
 50
14.999992459676
 51
90.000001207418
  0
LINE
  5
229
100
AcDbEntity
  8
Exterior View
370
           0
  6
Continuous
 62
           7
100
AcDbLine
 10
-0.1875
 20
-14.018733749157
 30
0.0
 11
-0.1875
 21
-13.95534582887
 31
0.0
1001
TCAD
1000
TCW_CUSTOM_DATA
1002
{
1000
#$AUX@_ToolInfo Properties
1070
           8
1000
Insert^JLine^JPerpendicular@Line Perpendicular
1002
}
  0
LINE
  5
22A
100
AcDbEntity
  8
Exterior View
370
           0
  6
Continuous
 62
           7
100
AcDbLine
 10
1.3125
 20
-14.145396907051
 30
0.0
 11
1.3125
 21
-14.082672144659
 31
0.0
1001
TCAD
1000
TCW_CUSTOM_DATA
1002
{
1000
#$AUX@_ToolInfo Properties
1070
           8
1000
Insert^JLine^JPerpendicular@Line Perpendicular
1002
}
  0
LINE
  5
22B
100
AcDbEntity
  8
Exterior View
370
           0
  6
Continuous
 62
           7
100
AcDbLine
 10
0.8125
 20
-14.102954801788
 30
0.0
 11
0.8125
 21
-14.040230039396
 31
0.0
1001
TCAD
1000
TCW_CUSTOM_DATA
1002
{
1000
#$AUX@_ToolInfo Properties
1070
           8
1000
Insert^JLine^JPerpendicular@Line Perpendicular
1002
}
  0
LINE
  5
22C
100
AcDbEntity
  8
Exterior View
370
           0
  6
Continuous
 62
           7
100
AcDbLine
 10
0.3125
 20
-14.060512696525
 30
0.0
 11
0.3125
 21
-13.997787934133
 31
0.0
1001
TCAD
1000
TCW_CUSTOM_DATA
1002
{
1000
#$AUX@_ToolInfo Properties
1070
           8
1000
Insert^JLine^JPerpendicular@Line Perpendicular
1002
}
  0
LINE
  5
22D
100
AcDbEntity
  8
Exterior View
370
           0
  6
Continuous
 62
           7
100
AcDbLine
 10
0.3125
 20
-14.060512696525
 30
0.0
 11
0.3125
 21
-15.224878882438
 31
0.0
1001
TCAD
1000
TCW_CUSTOM_DATA
1002
{
1000
#$AUX@_ToolInfo Properties
1070
           8
1000
Insert^JLine^JPerpendicular@Line Perpendicular
1002
}
  0
LINE
  5
22E
100
AcDbEntity
  8
Exterior View
370
           0
  6
Continuous
 62
           7
100
AcDbLine
 10
0.8125
 20
-14.102954801788
 30
0.0
 11
0.8125
 21
-15.224878882438
 31
0.0
1001
TCAD
1000
TCW_CUSTOM_DATA
1002
{
1000
#$AUX@_ToolInfo Properties
1070
           8
1000
Insert^JLine^JPerpendicular@Line Perpendicular
1002
}
  0
CIRCLE
  5
22F
100
AcDbEntity
  8
Exterior View
370
           0
  6
Continuous
 62
           7
100
AcDbCircle
 10
0.25
 20
-15.224878882438
 30
0.0
 40
0.0625
1001
TCAD
1000
TCW_CUSTOM_DATA
1002
{
1000
#$AUX@_ToolInfo Properties
1070
           8
1000
Insert^JCircle^JTanToLine@Circle TanToLine
1002
}
  0
CIRCLE
  5
230
100
AcDbEntity
  8
Exterior View
370
           0
  6
Continuous
 62
           7
100
AcDbCircle
 10
0.875
 20
-15.224878882438
 30
0.0
 40
0.0625
1001
TCAD
1000
TCW_CUSTOM_DATA
1002
{
1000
#$AUX@_ToolInfo Properties
1070
           8
1000
Insert^JCircle^JTanToLine@Circle TanToLine
1002
}
  0
LINE
  5
231
100
AcDbEntity
  8
Exterior View
370
           0
  6
Continuous
 62
           7
100
AcDbLine
 10
0.309425031634
 20
-15.244241620242
 30
0.0
 11
-0.04904492122
 21
-16.344400518416
 31
0.0
1001
TCAD
1000
TCW_CUSTOM_DATA
1002
{
1000
#$AUX@_ToolInfo Properties
1070
           8
1000
Insert^JLine^JLine2Arcs@Line Line2Arcs
1002
}
  0
LINE
  5
232
100
AcDbEntity
  8
Exterior View
370
           0
  6
Continuous
 62
           7
100
AcDbLine
 10
0.815574968366
 20
-15.244241620242
 30
0.0
 11
1.17404492122
 21
-16.344400518416
 31
0.0
1001
TCAD
1000
TCW_CUSTOM_DATA
1002
{
1000
#$AUX@_ToolInfo Properties
1070
           8
1000
Insert^JLine^JLine2Arcs@Line Line2Arcs
1002
}
  0
LINE
  5
233
100
AcDbEntity
  8
Exterior View
370
           0
  6
Continuous
 62
           7
100
AcDbLine
 10
-0.1875
 20
-13.95534582887
 30
0.0
 11
0.171875
 21
-0.125008986764
 31
0.0
1001
TCAD
1000
TCW_CUSTOM_DATA
1002
{
1000
#$AUX@_ToolInfo Properties
1070
           8
1000
Insert^JLine^JSingle@Line Single
1002
}
  0
LINE
  5
234
100
AcDbEntity
  8
Exterior View
370
           0
  6
Continuous
 62
           7
100
AcDbLine
 10
0.42715
 20
-0.125008986764
 30
0.0
 11
0.3125
 21
-13.997787934133
 31
0.0
1001
TCAD
1000
TCW_CUSTOM_DATA
1002
{
1000
#$AUX@_ToolInfo Properties
1070
           8
1000
Insert^JLine^JSingle@Line Single
1002
}
  0
LINE
  5
235
100
AcDbEntity
  8
Exterior View
370
           0
  6
Continuous
 62
           7
100
AcDbLine
 10
0.8125
 20
-14.040230039396
 30
0.0
 11
0.69795
 21
-0.125008986764
 31
0.0
1001
TCAD
1000
TCW_CUSTOM_DATA
1002
{
1000
#$AUX@_ToolInfo Properties
1070
           8
1000
Insert^JLine^JSingle@Line Single
1002
}
  0
LINE
  5
236
100
AcDbEntity
  8
Exterior View
370
           0
  6
Continuous
 62
           7
100
AcDbLine
 10
0.96875
 20
-0.125008986764
 30
0.0
 11
1.3125
 21
-14.082672144659
 31
0.0
1001
TCAD
1000
TCW_CUSTOM_DATA
1002
{
1000
#$AUX@_ToolInfo Properties
1070
           8
1000
Insert^JLine^JSingle@Line Single
1002
}
  0
LINE
  5
237
100
AcDbEntity
  8
Hidden
370
           0
  6
HIDDEN
 62
           7
 48
0.20000000298
100
AcDbLine
 10
10.375
 20
-12.5
 30
0.0
 11
8.375
 21
-12.5
 31
0.0
1001
TCAD
1000
TCW_CUSTOM_DATA
1002
{
1000
#$AUX@_ToolInfo Properties
1070
           8
1000
Insert^JLine^JSingle@Line Single
1002
}
  0
LINE
  5
238
100
AcDbEntity
  8
Hidden
370
           0
  6
HIDDEN
 62
           7
 48
0.20000000298
100
AcDbLine
 10
10.375
 20
-12.5
 30
0.0
 11
10.375
 21
-11.875
 31
0.0
1001
TCAD
1000
TCW_CUSTOM_DATA
1002
{
1000
#$AUX@_ToolInfo Properties
1070
           8
1000
Insert^JLine^JSingle@Line Single
1002
}
  0
LINE
  5
239
100
AcDbEntity
  8
Hidden
370
           0
  6
HIDDEN
 62
           7
 48
0.20000000298
100
AcDbLine
 10
10.375
 20
-11.875
 30
0.0
 11
8.375
 21
-11.875
 31
0.0
1001
TCAD
1000
TCW_CUSTOM_DATA
1002
{
1000
#$AUX@_ToolInfo Properties
1070
           8
1000
Insert^JLine^JSingle@Line Single
1002
}
  0
LINE
  5
23A
100
AcDbEntity
  8
Hidden
370
           0
  6
HIDDEN
 62
           7
 48
0.20000000298
100
AcDbLine
 10
8.375
 20
-12.5
 30
0.0
 11
8.375
 21
-11.875
 31
0.0
1001
TCAD
1000
TCW_CUSTOM_DATA
1002
{
1000
#$AUX@_ToolInfo Properties
1070
           8
1000
Insert^JLine^JSingle@Line Single
1002
}
  0
LINE
  5
23B
100
AcDbEntity
  8
Hidden
370
           0
  6
HIDDEN
 62
           7
 48
0.20000000298
100
AcDbLine
 10
8.625
 20
-12.5
 30
0.0
 11
8.625
 21
-11.875
 31
0.0
1001
TCAD
1000
TCW_CUSTOM_DATA
1002
{
1000
#$AUX@_ToolInfo Properties
1070
           8
1000
Insert^JLine^JSingle@Line Single
1002
}
  0
LINE
  5
23C
100
AcDbEntity
  8
Exterior View
370
           0
  6
Continuous
 62
           7
100
AcDbLine
 10
-0.1875
 20
-14.018733749157
 30
0.0
 11
-0.1875
 21
-15.14473782242
 31
0.0
1001
TCAD
1000
TCW_CUSTOM_DATA
1002
{
1000
#$AUX@_ToolInfo Properties
1070
           8
1000
Insert^JLine^JPerpendicular@Line Perpendicular
1002
}
  0
LINE
  5
23D
100
AcDbEntity
  8
Exterior View
370
           0
  6
Continuous
 62
           7
100
AcDbLine
 10
1.3125
 20
-14.145396907051
 30
0.0
 11
1.3125
 21
-15.14473782242
 31
0.0
1001
TCAD
1000
TCW_CUSTOM_DATA
1002
{
1000
#$AUX@_ToolInfo Properties
1070
           8
1000
Insert^JLine^JPerpendicular@Line Perpendicular
1002
}
  0
CIRCLE
  5
23E
100
AcDbEntity
  8
Exterior View
370
           0
  6
Continuous
 62
           7
100
AcDbCircle
 10
-0.25
 20
-15.14473782242
 30
0.0
 40
0.0625
1001
TCAD
1000
TCW_CUSTOM_DATA
1002
{
1000
#$AUX@_ToolInfo Properties
1070
           8
1000
Insert^JCircle^JTanToLine@Circle TanToLine
1002
}
  0
CIRCLE
  5
23F
100
AcDbEntity
  8
Exterior View
370
           0
  6
Continuous
 62
           7
100
AcDbCircle
 10
1.375
 20
-15.14473782242
 30
0.0
 40
0.0625
1001
TCAD
1000
TCW_CUSTOM_DATA
1002
{
1000
#$AUX@_ToolInfo Properties
1070
           8
1000
Insert^JCircle^JTanToLine@Circle TanToLine
1002
}
  0
LINE
  5
240
100
AcDbEntity
  8
Exterior View
370
           0
  6
Continuous
 62
           7
100
AcDbLine
 10
-0.200033831212
 20
-15.182282888363
 30
0.0
 11
-0.93349697428
 21
-16.158398984729
 31
0.0
1001
TCAD
1000
TCW_CUSTOM_DATA
1002
{
1000
#$AUX@_ToolInfo Properties
1070
           8
1000
Insert^JLine^JLine2Arcs@Line Line2Arcs
1002
}
  0
LINE
  5
241
100
AcDbEntity
  8
Exterior View
370
           0
  6
Continuous
 62
           7
100
AcDbLine
 10
1.325033831212
 20
-15.182282888363
 30
0.0
 11
2.05849697428
 21
-16.158398984729
 31
0.0
1001
TCAD
1000
TCW_CUSTOM_DATA
1002
{
1000
#$AUX@_ToolInfo Properties
1070
           8
1000
Insert^JLine^JLine2Arcs@Line Line2Arcs
1002
}
  0
LINE
  5
242
100
AcDbEntity
  8
Hidden
370
           0
  6
HIDDEN
 62
           7
 48
0.20000000298
100
AcDbLine
 10
3.624989357153
 20
-16.452122008293
 30
0.0
 11
2.627992931307
 21
-15.752119502158
 31
0.0
1001
TCAD
1000
TCW_CUSTOM_DATA
1002
{
1000
#$AUX@_ToolInfo Properties
1070
           8
1000
Insert^JLine^JPerpendicular@Line Perpendicular
1002
}
  0
LINE
  5
243
100
AcDbEntity
  8
Hidden
370
           0
  6
HIDDEN
 62
           7
 48
0.20000000298
100
AcDbLine
 10
4.127783163556
 20
-15.736005126602
 30
0.0
 11
3.130786726926
 21
-15.036002612895
 31
0.0
1001
TCAD
1000
TCW_CUSTOM_DATA
1002
{
1000
#$AUX@_ToolInfo Properties
1070
           8
1000
Insert^JLine^JPerpendicular@Line Perpendicular
1002
}
  0
LINE
  5
244
100
AcDbEntity
  8
Hidden
370
           0
  6
HIDDEN
 62
           7
 48
0.20000000298
100
AcDbLine
 10
2.627992931307
 20
-15.752119502158
 30
0.0
 11
3.130786726926
 21
-15.036002612895
 31
0.0
1001
TCAD
1000
TCW_CUSTOM_DATA
1002
{
1000
#$AUX@_ToolInfo Properties
1070
           8
1000
Insert^JLine^JPerpendicular@Line Perpendicular
1002
}
  0
LINE
  5
245
100
AcDbEntity
  8
Hidden
370
           0
  6
HIDDEN
 62
           7
 48
0.20000000298
100
AcDbLine
 10
5.751246107165
 20
-16.452714273232
 30
0.0
 11
6.748107111249
 21
-15.75251892886
 31
0.0
1001
TCAD
1000
TCW_CUSTOM_DATA
1002
{
1000
#$AUX@_ToolInfo Properties
1070
           8
1000
Insert^JLine^JPerpendicular@Line Perpendicular
1002
}
  0
LINE
  5
246
100
AcDbEntity
  8
Hidden
370
           0
  6
HIDDEN
 62
           7
 48
0.20000000298
100
AcDbLine
 10
5.248313790017
 20
-15.736694661512
 30
0.0
 11
6.245174804885
 21
-15.036499309566
 31
0.0
1001
TCAD
1000
TCW_CUSTOM_DATA
1002
{
1000
#$AUX@_ToolInfo Properties
1070
           8
1000
Insert^JLine^JPerpendicular@Line Perpendicular
1002
}
  0
LINE
  5
247
100
AcDbEntity
  8
Hidden
370
           0
  6
HIDDEN
 62
           7
 48
0.20000000298
100
AcDbLine
 10
6.748107111249
 20
-15.75251892886
 30
0.0
 11
6.245174804885
 21
-15.036499309566
 31
0.0
1001
TCAD
1000
TCW_CUSTOM_DATA
1002
{
1000
#$AUX@_ToolInfo Properties
1070
           8
1000
Insert^JLine^JPerpendicular@Line Perpendicular
1002
}
  0
LINE
  5
248
100
AcDbEntity
  8
Exterior View
370
           0
  6
Continuous
 62
           7
100
AcDbLine
 10
-5.578125
 20
-16.717965376933
 30
0.0
 11
-5.578125
 21
-6.624592736444
 31
0.0
1001
TCAD
1000
TCW_CUSTOM_DATA
1002
{
1000
#$AUX@_ToolInfo Properties
1070
           8
1000
Insert^JLine^JPerpendicular@Line Perpendicular
1002
}
  0
ARC
  5
249
100
AcDbEntity
  8
Hidden
370
           0
  6
HIDDEN
 62
           7
 48
0.20000000298
100
AcDbCircle
 10
-5.453125
 20
-15.644121367961
 30
0.0
 40
0.125
100
AcDbArc
 50
180.0
 51
270.0
1001
TCAD
1000
TCW_CUSTOM_DATA
1002
{
1000
#$AUX@_ToolInfo Properties
1070
           8
1000
Insert^JArc^JTanToEntities@Arc TanToEntities
1002
}
  0
ARC
  5
24A
100
AcDbEntity
  8
Hidden
370
           0
  6
HIDDEN
 62
           7
 48
0.20000000298
100
AcDbCircle
 10
-5.453125
 20
-15.332109718326
 30
0.0
 40
0.125
100
AcDbArc
 50
180.0
 51
270.0
1001
TCAD
1000
TCW_CUSTOM_DATA
1002
{
1000
#$AUX@_ToolInfo Properties
1070
           8
1000
Insert^JArc^JTanToEntities@Arc TanToEntities
1002
}
  0
ARC
  5
24B
100
AcDbEntity
  8
Exterior View
370
           0
  6
Continuous
 62
           7
100
AcDbCircle
 10
-5.453125
 20
-16.717965376933
 30
0.0
 40
0.125
100
AcDbArc
 50
180.0
 51
270.0
1001
TCAD
1000
TCW_CUSTOM_DATA
1002
{
1000
#$AUX@_ToolInfo Properties
1070
           8
1000
Insert^JArc^JTanToEntities@Arc TanToEntities
1002
}
  0
ARC
  5
24C
100
AcDbEntity
  8
Exterior View
370
           0
  6
Continuous
 62
           7
100
AcDbCircle
 10
-5.453125
 20
-7.187008986764
 30
0.0
 40
0.125
100
AcDbArc
 50
90.0
 51
180.0
1001
TCAD
1000
TCW_CUSTOM_DATA
1002
{
1000
#$AUX@_ToolInfo Properties
1070
           8
1000
Insert^JArc^JTanToEntities@Arc TanToEntities
1002
}
  0
ARC
  5
24D
100
AcDbEntity
  8
Exterior View
370
           0
  6
Continuous
 62
           7
100
AcDbCircle
 10
-5.515625
 20
-6.624592736444
 30
0.0
 40
0.0625
100
AcDbArc
 50
105.363761343829
 51
180.0
1001
TCAD
1000
TCW_CUSTOM_DATA
1002
{
1000
#$AUX@_ToolInfo Properties
1070
           8
1000
Insert^JArc^JTanToEntities@Arc TanToEntities
1002
}
  0
ARC
  5
24E
100
AcDbEntity
  8
Exterior View
370
           0
  6
Continuous
 62
           7
100
AcDbCircle
 10
-5.815461662041
 20
-5.553415855217
 30
0.0
 40
1.049850492366
100
AcDbArc
 50
-74.346055158042
 51
0.0
  0
LINE
  5
24F
100
AcDbEntity
  8
Exterior View
370
           0
  6
Continuous
 62
           7
100
AcDbLine
 10
-5.203125
 20
-6.40619359217
 30
0.0
 11
-5.203125
 21
-16.842965376933
 31
0.0
1001
TCAD
1000
TCW_CUSTOM_DATA
1002
{
1000
#$AUX@_ToolInfo Properties
1070
           8
1000
Insert^JLine^JPerpendicular@Line Perpendicular
1002
}
  0
ENDSEC
  0
SECTION
  2
OBJECTS
  0
DICTIONARY
  5
19
100
AcDbDictionary
280
           0
281
           1
  3
ACAD_GROUP
350
1A
  3
ACAD_MLINESTYLE
350
1B
  3
ACAD_LAYOUT
350
1E
  3
ACAD_PLOTSETTINGS
350
22
  3
ACAD_PLOTSTYLENAME
350
1F
  0
DICTIONARY
  5
1A
102
{ACAD_REACTORS
330
19
102
}
100
AcDbDictionary
280
           0
281
           1
  0
DICTIONARY
  5
1B
102
{ACAD_REACTORS
330
19
102
}
100
AcDbDictionary
280
           0
281
           1
  3
Standard
350
1C
  0
MLINESTYLE
  5
1C
100
AcDbMlineStyle
  2
STANDARD
 70
           0
  3

 62
         256
 51
90.0
 52
90.0
 71
           3
 49
0.25
 62
           7
  6
ByLayer
 49
0.0
 62
           7
  6
ByLayer
 49
-0.25
 62
           7
  6
ByLayer
  0
ACDBDICTIONARYWDFLT
  5
1F
102
{ACAD_REACTORS
330
19
102
}
100
AcDbDictionary
281
           1
  3
Normal
350
1D
100
AcDbDictionaryWithDefault
340
1D
  0
ACDBPLACEHOLDER
  5
1D
102
{ACAD_REACTORS
330
1F
102
}
  0
LAYOUT
  5
21
102
{ACAD_REACTORS
330
1E
102
}
100
AcDbPlotSettings
  1

  2

  4

  6

 40
0.0
 41
0.0
 42
0.0
 43
0.0
 44
0.0
 45
0.0
 46
0.0
 47
0.0
 48
0.0
 49
0.0
140
0.0
141
0.0
142
1.0
143
1.0
 70
           0
 72
           0
 73
           0
 74
           0
  7

 75
           0
147
1.0
148
0.0
149
0.0
100
AcDbLayout
  1
Layout1
 70
           0
 71
           0
 10
0.0
 20
0.0
 11
0.0
 21
0.0
 12
0.0
 22
0.0
 32
0.0
 14
0.0
 24
0.0
 34
0.0
 15
0.0
 25
0.0
 35
0.0
146
0.0
 13
0.0
 23
0.0
 33
0.0
 16
0.0
 26
0.0
 36
0.0
 17
0.0
 27
0.0
 37
0.0
 76
           0
330
B
331
0
345
0
346
0
  0
DICTIONARY
  5
1E
102
{ACAD_REACTORS
330
19
102
}
100
AcDbDictionary
280
           0
281
           1
  3
Model
350
250
  3
Paper 1
350
251
  0
DICTIONARY
  5
22
102
{ACAD_REACTORS
330
19
102
}
100
AcDbDictionary
280
           0
281
           1
  0
LAYOUT
  5
250
100
AcDbPlotSettings
  1

  2

  4

  6

 40
0.0
 41
0.0
 42
0.0
 43
0.0
 44
0.0
 45
0.0
 46
0.0
 47
0.0
 48
0.0
 49
0.0
140
0.0
141
0.0
142
1.0
143
1.0
 70
           0
 72
           0
 73
           0
 74
           0
  7

 75
           0
147
1.0
148
0.0
149
0.0
100
AcDbLayout
  1
Model
 70
           0
 71
           0
 10
0.0
 20
0.0
 11
0.0
 21
0.0
 12
0.0
 22
0.0
 32
0.0
 14
0.0
 24
0.0
 34
0.0
 15
0.0
 25
0.0
 35
0.0
146
0.0
 13
0.0
 23
0.0
 33
0.0
 16
0.0
 26
0.0
 36
0.0
 17
0.0
 27
0.0
 37
0.0
 76
           0
330
A
331
0
345
0
346
0
  0
LAYOUT
  5
251
100
AcDbPlotSettings
  1

  2
none_device
  4

  6

 40
1.69418
 41
6.39318
 42
12.7
 43
6.35
 44
279.4
 45
215.9
 46
-1.69418
 47
-6.39318
 48
0.0
 49
0.0
140
0.0
141
0.0
142
1.0
143
1.0
 70
           0
 72
           0
 73
           0
 74
           0
  7

 75
           0
147
1.0
148
0.0
149
0.0
100
AcDbLayout
  1
Paper 1
 70
           1
 71
           1
 10
0.0
 20
0.0
 11
279.4
 21
215.9
 12
0.0
 22
0.0
 32
0.0
 14
0.0
 24
0.0
 34
0.0
 15
0.0
 25
0.0
 35
0.0
146
0.0
 13
0.0
 23
0.0
 33
0.0
 16
0.0
 26
0.0
 36
0.0
 17
0.0
 27
0.0
 37
0.0
 76
           0
330
B
331
0
345
0
346
0
  0
ENDSEC
  0
EOF
