  0
SECTION
  2
HEADER
  9
$ACADVER
  1
AC1015
  9
$ACADMAINTVER
 70
           6
  9
$DWGCODEPAGE
  3
ANSI_1252
  9
$INSBASE
 10
0.0
 20
0.0
 30
0.0
  9
$EXTMIN
 10
-7.90622001462
 20
-41.270707361445
 30
0.0
  9
$EXTMAX
 10
14.81252998538
 20
4.722401416439
 30
0.0
  9
$LIMMIN
 10
-5.0
 20
-22.0
  9
$LIMMAX
 10
6.0
 20
-13.5
  9
$ORTHOMODE
 70
           0
  9
$REGENMODE
 70
           1
  9
$FILLMODE
 70
           1
  9
$QTEXTMODE
 70
           0
  9
$MIRRTEXT
 70
           1
  9
$LTSCALE
 40
1.0
  9
$ATTMODE
 70
           1
  9
$TEXTSIZE
 40
0.5
  9
$TRACEWID
 40
1.0
  9
$TEXTSTYLE
  7
STANDARD
  9
$CLAYER
  8
0
  9
$CELTYPE
  6
Continuous
  9
$CECOLOR
 62
           7
  9
$CELTSCALE
 40
1.0
  9
$DISPSILH
 70
           0
  9
$DIMSCALE
 40
1.0
  9
$DIMASZ
 40
0.25
  9
$DIMEXO
 40
0.0625
  9
$DIMDLI
 40
0.375
  9
$DIMRND
 40
0.01
  9
$DIMDLE
 40
0.0
  9
$DIMEXE
 40
0.125
  9
$DIMTP
 40
0.0
  9
$DIMTM
 40
0.0
  9
$DIMTXT
 40
0.15
  9
$DIMCEN
 40
0.09
  9
$DIMTSZ
 40
0.0
  9
$DIMTOL
 70
           0
  9
$DIMLIM
 70
           0
  9
$DIMTIH
 70
           1
  9
$DIMTOH
 70
           1
  9
$DIMSE1
 70
           0
  9
$DIMSE2
 70
           0
  9
$DIMTAD
 70
           1
  9
$DIMZIN
 70
           0
  9
$DIMBLK
  1

  9
$DIMASO
 70
           0
  9
$DIMSHO
 70
           1
  9
$DIMPOST
  1
<>in
  9
$DIMAPOST
  1

  9
$DIMALT
 70
           0
  9
$DIMALTD
 70
           2
  9
$DIMALTF
 40
1.0
  9
$DIMLFAC
 40
1.0
  9
$DIMTOFL
 70
           1
  9
$DIMTVP
 40
0.0
  9
$DIMTIX
 70
           0
  9
$DIMSOXD
 70
           0
  9
$DIMSAH
 70
           0
  9
$DIMBLK1
  1

  9
$DIMBLK2
  1

  9
$DIMSTYLE
  2
STANDARD
  9
$DIMCLRD
 70
           7
  9
$DIMCLRE
 70
           7
  9
$DIMCLRT
 70
           7
  9
$DIMTFAC
 40
1.0
  9
$DIMGAP
 40
0.0625
  9
$DIMJUST
 70
           0
  9
$DIMSD1
 70
           0
  9
$DIMSD2
 70
           0
  9
$DIMTOLJ
 70
           1
  9
$DIMTZIN
 70
           0
  9
$DIMALTZ
 70
           0
  9
$DIMALTTZ
 70
           0
  9
$DIMUPT
 70
           0
  9
$DIMDEC
 70
           2
  9
$DIMTDEC
 70
           2
  9
$DIMALTU
 70
           2
  9
$DIMALTTD
 70
           2
  9
$DIMTXSTY
  7
STANDARD
  9
$DIMAUNIT
 70
           0
  9
$DIMADEC
 70
           2
  9
$DIMALTRND
 40
0.0
  9
$DIMAZIN
 70
           0
  9
$DIMDSEP
 70
           0
  9
$DIMATFIT
 70
           0
  9
$DIMFRAC
 70
           0
  9
$DIMLDRBLK
  1

  9
$DIMLUNIT
 70
           2
  9
$DIMLWD
 70
           0
  9
$DIMLWE
 70
           0
  9
$DIMTMOVE
 70
           0
  9
$LUNITS
 70
           2
  9
$LUPREC
 70
           4
  9
$SKETCHINC
 40
1.0
  9
$FILLETRAD
 40
1.0
  9
$AUNITS
 70
           0
  9
$AUPREC
 70
           2
  9
$MENU
  1
acad
  9
$ELEVATION
 40
0.0
  9
$PELEVATION
 40
0.0
  9
$THICKNESS
 40
0.0
  9
$LIMCHECK
 70
           0
  9
$CHAMFERA
 40
0.0
  9
$CHAMFERB
 40
0.0
  9
$CHAMFERC
 40
0.0
  9
$CHAMFERD
 40
0.0
  9
$SKPOLY
 70
           0
  9
$TDCREATE
 40
0.000000000
  9
$TDUCREATE
 40
0.000000000
  9
$TDUPDATE
 40
2449702.667959363
  9
$TDUUPDATE
 40
0.000000000
  9
$TDINDWG
 40
0.0000000000
  9
$TDUSRTIMER
 40
0.0000000000
  9
$USRTIMER
 70
           1
  9
$ANGBASE
 50
0.0
  9
$ANGDIR
 70
           0
  9
$PDMODE
 70
           0
  9
$PDSIZE
 40
0.0
  9
$PLINEWID
 40
0.0
  9
$SPLFRAME
 70
           0
  9
$SPLINETYPE
 70
           5
  9
$SPLINESEGS
 70
          20
  9
$HANDSEED
  5
292
  9
$SURFTAB1
 70
           6
  9
$SURFTAB2
 70
           6
  9
$SURFTYPE
 70
           6
  9
$SURFU
 70
           6
  9
$SURFV
 70
           6
  9
$UCSBASE
  2

  9
$UCSNAME
  2

  9
$UCSORG
 10
0.0
 20
0.0
 30
0.0
  9
$UCSXDIR
 10
1.0
 20
0.0
 30
0.0
  9
$UCSYDIR
 10
0.0
 20
1.0
 30
0.0
  9
$UCSORTHOREF
  2

  9
$UCSORTHOVIEW
 70
           0
  9
$UCSORGTOP
 10
0.0
 20
0.0
 30
0.0
  9
$UCSORGBOTTOM
 10
0.0
 20
0.0
 30
0.0
  9
$UCSORGLEFT
 10
0.0
 20
0.0
 30
0.0
  9
$UCSORGRIGHT
 10
0.0
 20
0.0
 30
0.0
  9
$UCSORGFRONT
 10
0.0
 20
0.0
 30
0.0
  9
$UCSORGBACK
 10
0.0
 20
0.0
 30
0.0
  9
$PUCSBASE
  2

  9
$PUCSNAME
  2

  9
$PUCSORG
 10
0.0
 20
0.0
 30
0.0
  9
$PUCSXDIR
 10
1.0
 20
0.0
 30
0.0
  9
$PUCSYDIR
 10
0.0
 20
1.0
 30
0.0
  9
$PUCSORTHOREF
  2

  9
$PUCSORTHOVIEW
 70
           0
  9
$PUCSORGTOP
 10
0.0
 20
0.0
 30
0.0
  9
$PUCSORGBOTTOM
 10
0.0
 20
0.0
 30
0.0
  9
$PUCSORGLEFT
 10
0.0
 20
0.0
 30
0.0
  9
$PUCSORGRIGHT
 10
0.0
 20
0.0
 30
0.0
  9
$PUCSORGFRONT
 10
0.0
 20
0.0
 30
0.0
  9
$PUCSORGBACK
 10
0.0
 20
0.0
 30
0.0
  9
$USERI1
 70
           0
  9
$USERI2
 70
           0
  9
$USERI3
 70
           0
  9
$USERI4
 70
           0
  9
$USERI5
 70
           0
  9
$USERR1
 40
0.0
  9
$USERR2
 40
0.0
  9
$USERR3
 40
0.0
  9
$USERR4
 40
0.0
  9
$USERR5
 40
0.0
  9
$WORLDVIEW
 70
           1
  9
$SHADEDGE
 70
           3
  9
$SHADEDIF
 70
          70
  9
$TILEMODE
 70
           1
  9
$MAXACTVP
 70
          16
  9
$PINSBASE
 10
0.0
 20
0.0
 30
0.0
  9
$PLIMCHECK
 70
           0
  9
$PEXTMIN
 10
0.0
 20
0.0
 30
0.0
  9
$PEXTMAX
 10
11.0
 20
8.5
 30
0.0
  9
$PLIMMIN
 10
0.0
 20
0.0
  9
$PLIMMAX
 10
11.0
 20
8.5
  9
$UNITMODE
 70
           0
  9
$VISRETAIN
 70
           0
  9
$PLINEGEN
 70
           1
  9
$PSLTSCALE
 70
           1
  9
$TREEDEPTH
 70
        3020
  9
$CMLSTYLE
  2
STANDARD
  9
$CMLJUST
 70
           0
  9
$CMLSCALE
 40
1.0
  9
$PROXYGRAPHICS
 70
           0
  9
$MEASUREMENT
 70
           0
  9
$CELWEIGHT
370
           0
  9
$ENDCAPS
280
           0
  9
$JOINSTYLE
280
           0
  9
$LWDISPLAY
290
           0
  9
$INSUNITS
 70
           0
  9
$HYPERLINKBASE
  1

  9
$STYLESHEET
  1

  9
$XEDIT
290
           1
  9
$CEPSNTYPE
380
           0
  9
$PSTYLEMODE
290
           1
  9
$FINGERPRINTGUID
  2

  9
$VERSIONGUID
  2

  9
$EXTNAMES
290
           1
  9
$PSVPSCALE
 40
0.0
  0
ENDSEC
  0
SECTION
  2
CLASSES
  0
CLASS
  1
LWPOLYLINE
  2
AcDbPolyline
  3
AutoCAD 2000
 90
        0
280
           0
281
           1
  0
CLASS
  1
IMAGE
  2
AcDbRasterImage
  3
ISM
 90
    32895
280
           0
281
           1
  0
CLASS
  1
OLE2FRAME
  2
AcDbOle2Frame
  3
AutoCAD 2000
 90
    32768
280
           0
281
           1
  0
CLASS
  1
HATCH
  2
AcDbHatch
  3
AutoCAD 2000
 90
    32768
280
           0
281
           1
  0
CLASS
  1
DICTIONARYVAR
  2
AcDbDictionaryVar
  3
AutoCAD 2000
 90
    32768
280
           0
281
           0
  0
CLASS
  1
RASTERVARIABLES
  2
AcDbRasterVariables
  3
ISM
 90
    32768
280
           0
281
           0
  0
CLASS
  1
IMAGEDEF
  2
AcDbRasterImageDef
  3
ISM
 90
    32768
280
           0
281
           0
  0
CLASS
  1
IMAGEDEF_REACTOR
  2
AcDbRasterImageDefReactor
  3
ISM
 90
    32769
280
           0
281
           0
  0
CLASS
  1
IDBUFFER
  2
AcDbIdBuffer
  3
AutoCAD 2000
 90
    32768
280
           0
281
           0
  0
CLASS
  1
SPATIAL_FILTER
  2
AcDbSpatialFilter
  3
AutoCAD 2000
 90
    32768
280
           0
281
           0
  0
CLASS
  1
XRECORD
  2
AcDbXrecord
  3
AutoCAD 2000
 90
    32768
280
           0
281
           0
  0
CLASS
  1
SORTENTSTABLE
  2
AcDbSortentsTable
  3
AutoCAD 2000
 90
    32768
280
           0
281
           0
  0
CLASS
  1
LAYER_INDEX
  2
AcDbLayerIndex
  3
AutoCAD 2000
 90
    32768
280
           0
281
           0
  0
CLASS
  1
SPATIAL_INDEX
  2
AcDbSpatialIndex
  3
AutoCAD 2000
 90
    32768
280
           0
281
           0
  0
CLASS
  1
OBJECT_PTR
  2
CAseDLPNTableRecord
  3
"ASE-LPNTableRecord"
 90
    32769
280
           0
281
           0
  0
CLASS
  1
LAYOUT
  2
AcDbLayout
  3
AutoCAD 2000
 90
        0
280
           0
281
           0
  0
CLASS
  1
PLOTSETTINGS
  2
AcDbPlotSettings
  3
AutoCAD 2000
 90
    32768
280
           0
281
           0
  0
CLASS
  1
ACDBDICTIONARYWDFLT
  2
AcDbDictionaryWithDefault
  3
AutoCAD 2000
 90
        0
280
           0
281
           0
  0
CLASS
  1
ACDBPLACEHOLDER
  2
AcDbPlaceHolder
  3
AutoCAD 2000
 90
        0
280
           0
281
           0
  0
ENDSEC
  0
SECTION
  2
TABLES
  0
TABLE
  2
VPORT
  5
7
100
AcDbSymbolTable
 70
           1
  0
VPORT
  5
15
100
AcDbSymbolTableRecord
100
AcDbViewportTableRecord
  2
*ACTIVE
 70
           0
 10
0.0
 20
0.0
 11
1.0
 21
1.0
 12
0.0
 22
0.0
 13
0.0
 23
0.0
 14
0.5
 24
0.5
 15
0.5
 25
0.5
 16
0.025224483
 26
0.0252269368
 36
0.999363461
 17
3.451113429866
 27
-18.274728072933
 37
-0.112214798598
 40
46.900037601057
 41
2.005059021922
 42
50.0
 43
0.0
 44
0.0
 50
0.0
 51
134.995693430444
 71
           0
 72
         100
 73
           1
 74
           1
 75
           0
 76
           0
 77
           0
 78
           0
281
           0
 65
           0
110
0.0
120
0.0
130
0.0
111
1.0
121
0.0
131
0.0
112
0.0
122
1.0
132
0.0
345
0
346
0
 79
           0
146
0.0
  0
ENDTAB
  0
TABLE
  2
LTYPE
  5
4
100
AcDbSymbolTable
 70
          15
  0
LTYPE
  5
11
100
AcDbSymbolTableRecord
100
AcDbLinetypeTableRecord
  2
ByBlock
 70
          64
  3

 72
          65
 73
           0
 40
0.0
  0
LTYPE
  5
12
100
AcDbSymbolTableRecord
100
AcDbLinetypeTableRecord
  2
ByLayer
 70
          64
  3

 72
          65
 73
           0
 40
0.0
  0
LTYPE
  5
13
100
AcDbSymbolTableRecord
100
AcDbLinetypeTableRecord
  2
Continuous
 70
          64
  3
Solid line
 72
          65
 73
           0
 40
0.0
  0
LTYPE
  5
24
100
AcDbSymbolTableRecord
100
AcDbLinetypeTableRecord
  2
BORDER
 70
           0
  3
BORDER
 72
          65
 73
           6
 40
1.75
 49
0.5
 74
           0
 49
-0.25
 74
           0
 49
0.5
 74
           0
 49
-0.25
 74
           0
 49
0.0
 74
           0
 49
-0.25
 74
           0
  0
LTYPE
  5
25
100
AcDbSymbolTableRecord
100
AcDbLinetypeTableRecord
  2
CENTER
 70
           0
  3
CENTER
 72
          65
 73
           4
 40
2.0
 49
1.25
 74
           0
 49
-0.25
 74
           0
 49
0.25
 74
           0
 49
-0.25
 74
           0
  0
LTYPE
  5
26
100
AcDbSymbolTableRecord
100
AcDbLinetypeTableRecord
  2
DASHDOT
 70
           0
  3
DASHDOT
 72
          65
 73
           4
 40
1.0
 49
0.5
 74
           0
 49
-0.25
 74
           0
 49
0.0
 74
           0
 49
-0.25
 74
           0
  0
LTYPE
  5
27
100
AcDbSymbolTableRecord
100
AcDbLinetypeTableRecord
  2
DASHED
 70
           0
  3
DASHED
 72
          65
 73
           2
 40
0.75
 49
0.5
 74
           0
 49
-0.25
 74
           0
  0
LTYPE
  5
28
100
AcDbSymbolTableRecord
100
AcDbLinetypeTableRecord
  2
DIVIDE
 70
           0
  3
DIVIDE
 72
          65
 73
           6
 40
1.25
 49
0.5
 74
           0
 49
-0.25
 74
           0
 49
0.0
 74
           0
 49
-0.25
 74
           0
 49
0.0
 74
           0
 49
-0.25
 74
           0
  0
LTYPE
  5
29
100
AcDbSymbolTableRecord
100
AcDbLinetypeTableRecord
  2
DOT
 70
           0
  3
DOT
 72
          65
 73
           2
 40
0.25
 49
0.0
 74
           0
 49
-0.25
 74
           0
  0
LTYPE
  5
2A
100
AcDbSymbolTableRecord
100
AcDbLinetypeTableRecord
  2
HIDDEN
 70
           0
  3
HIDDEN
 72
          65
 73
           2
 40
0.375
 49
0.25
 74
           0
 49
-0.125
 74
           0
  0
LTYPE
  5
2B
100
AcDbSymbolTableRecord
100
AcDbLinetypeTableRecord
  2
PHANTOM
 70
           0
  3
PHANTOM
 72
          65
 73
           6
 40
2.5
 49
1.25
 74
           0
 49
-0.25
 74
           0
 49
0.25
 74
           0
 49
-0.25
 74
           0
 49
0.25
 74
           0
 49
-0.25
 74
           0
  0
LTYPE
  5
2C
100
AcDbSymbolTableRecord
100
AcDbLinetypeTableRecord
  2
$INVISIBLE
 70
           0
  3
$INVISIBLE
 72
          65
 73
           2
 40
200.0
 49
-100.0
 74
           0
 49
-100.0
 74
           0
  0
LTYPE
  5
2D
100
AcDbSymbolTableRecord
100
AcDbLinetypeTableRecord
  2
$SNAPEXT
 70
           0
  3
$SNAPEXT
 72
          65
 73
           2
 40
0.04
 49
0.02
 74
           0
 49
-0.02
 74
           0
  0
LTYPE
  5
2E
100
AcDbSymbolTableRecord
100
AcDbLinetypeTableRecord
  2
$AUXILIARY
 70
           0
  3
$AUXILIARY
 72
          65
 73
           2
 40
0.1
 49
0.05
 74
           0
 49
-0.05
 74
           0
  0
LTYPE
  5
2F
100
AcDbSymbolTableRecord
100
AcDbLinetypeTableRecord
  2
$CONSTRUCTION
 70
           0
  3
$CONSTRUCTION
 72
          65
 73
           4
 40
0.3
 49
0.2
 74
           0
 49
-0.05
 74
           0
 49
0.0
 74
           0
 49
-0.05
 74
           0
  0
ENDTAB
  0
TABLE
  2
LAYER
  5
2
100
AcDbSymbolTable
 70
           6
  0
LAYER
  5
14
100
AcDbSymbolTableRecord
100
AcDbLayerTableRecord
  2
0
 70
           0
 62
           7
  6
Continuous
290
           1
370
           0
390
0
1001
TCAD
1000
TCW_LAYER_ORDER
1002
{
1071
        0
1002
}
  0
LAYER
  5
30
100
AcDbSymbolTableRecord
100
AcDbLayerTableRecord
  2
Exterior View
 70
           0
 62
           7
  6
Continuous
290
           1
370
           0
390
0
1001
TCAD
1000
TCW_LAYER_ORDER
1002
{
1071
        0
1002
}
  0
LAYER
  5
31
100
AcDbSymbolTableRecord
100
AcDbLayerTableRecord
  2
Hidden
 70
           0
 62
           7
  6
Continuous
290
           1
370
           0
390
0
1001
TCAD
1000
TCW_LAYER_ORDER
1002
{
1071
        0
1002
}
  0
LAYER
  5
32
100
AcDbSymbolTableRecord
100
AcDbLayerTableRecord
  2
$CONSTRUCTION
 70
           0
 62
          -9
  6
$CONSTRUCTION
290
           1
370
           0
390
0
1001
TCAD
1000
TCW_LAYER_ORDER
1002
{
1071
        0
1002
}
  0
LAYER
  5
33
100
AcDbSymbolTableRecord
100
AcDbLayerTableRecord
  2
Strings
 70
           0
 62
           7
  6
Continuous
290
           1
370
           0
390
0
1001
TCAD
1000
TCW_LAYER_ORDER
1002
{
1071
        0
1002
}
  0
LAYER
  5
34
100
AcDbSymbolTableRecord
100
AcDbLayerTableRecord
  2
Aux Views
 70
           0
 62
           7
  6
Continuous
290
           1
370
           0
390
0
1001
TCAD
1000
TCW_LAYER_ORDER
1002
{
1071
        0
1002
}
  0
ENDTAB
  0
TABLE
  2
STYLE
  5
3
100
AcDbSymbolTable
 70
           1
  0
STYLE
  5
17
100
AcDbSymbolTableRecord
100
AcDbTextStyleTableRecord
  2
STANDARD
 70
           0
 40
0.0
 41
1.0
 50
0.0
 71
           0
 42
0.300000011921
  3
TIMES.TTF
  4

1001
ACAD
1000
Times New Roman
1071
      290
  0
ENDTAB
  0
TABLE
  2
VIEW
  5
5
100
AcDbSymbolTable
 70
           1
  0
VIEW
  5
35
100
AcDbSymbolTableRecord
100
AcDbViewTableRecord
  2
View_0
 70
           0
 40
8.267716535433
 10
5.846456692913
 20
4.133858267717
 41
11.692913385827
 11
0.0
 21
0.0
 31
1.0
 12
0.0
 22
0.0
 32
0.0
 42
92.090489446729
 43
0.0
 44
0.0
 50
0.0
 71
           0
281
           0
 72
           0
110
0.0
120
0.0
130
0.0
111
1.0
121
0.0
131
0.0
112
0.0
122
1.0
132
0.0
  0
ENDTAB
  0
TABLE
  2
UCS
  5
6
100
AcDbSymbolTable
 70
           0
  0
ENDTAB
  0
TABLE
  2
APPID
  5
8
100
AcDbSymbolTable
 70
           2
  0
APPID
  5
16
100
AcDbSymbolTableRecord
100
AcDbRegAppTableRecord
  2
ACAD
 70
           0
  0
APPID
  5
23
100
AcDbSymbolTableRecord
100
AcDbRegAppTableRecord
  2
TCAD
 70
           0
  0
ENDTAB
  0
TABLE
  2
DIMSTYLE
  5
9
100
AcDbSymbolTable
 70
           1
100
AcDbDimStyleTable
 71
           0
  0
DIMSTYLE
105
18
100
AcDbSymbolTableRecord
100
AcDbDimStyleTableRecord
  2
STANDARD
 70
           0
  3
<>in
  4

 40
1.0
 41
0.25
 42
0.0625
 43
0.375
 44
0.125
 45
0.01
 46
0.0
 47
0.0
 48
0.0
 71
           0
 72
           0
 73
           1
 74
           1
 75
           0
 76
           0
 77
           1
 78
           0
 79
           0
140
0.15
141
0.09
142
0.0
143
1.0
144
1.0
145
0.0
146
1.0
147
0.0625
148
0.01
170
           0
171
           2
172
           1
173
           0
174
           0
175
           0
176
           7
177
           7
178
           7
179
           2
271
           2
272
           2
273
           2
274
           2
275
           0
276
           0
277
           2
278
          46
279
           0
280
           0
281
           0
282
           0
283
           1
284
           0
285
           0
286
           0
288
           0
340
17
341
0
342
0
343
0
344
0
371
          -2
372
          -2
  0
ENDTAB
  0
TABLE
  2
BLOCK_RECORD
  5
1
100
AcDbSymbolTable
 70
           0
  0
BLOCK_RECORD
  5
A
100
AcDbSymbolTableRecord
100
AcDbBlockTableRecord
  2
*MODEL_SPACE
340
290
  0
BLOCK_RECORD
  5
B
100
AcDbSymbolTableRecord
100
AcDbBlockTableRecord
  2
*PAPER_SPACE
340
291
  0
ENDTAB
  0
ENDSEC
  0
SECTION
  2
BLOCKS
  0
BLOCK
  5
D
100
AcDbEntity
  8
0
100
AcDbBlockBegin
  2
*MODEL_SPACE
 70
           0
 10
0.0
 20
0.0
 30
0.0
  3
*MODEL_SPACE
  1

  0
ENDBLK
  5
E
100
AcDbEntity
  8
0
100
AcDbBlockEnd
  0
BLOCK
  5
F
100
AcDbEntity
 67
           1
  8
0
100
AcDbBlockBegin
  2
*PAPER_SPACE
 70
           0
 10
0.0
 20
0.0
 30
0.0
  3
*PAPER_SPACE
  1

  0
ENDBLK
  5
10
100
AcDbEntity
 67
           1
  8
0
100
AcDbBlockEnd
  0
ENDSEC
  0
SECTION
  2
ENTITIES
  0
LINE
  5
36
100
AcDbEntity
  8
Exterior View
370
           0
  6
Continuous
 62
           7
100
AcDbLine
 10
0.00002998538
 20
-0.123639975619
 30
0.0
 11
1.125230619123
 21
-0.123639975619
 31
0.0
1001
TCAD
1000
TCW_CUSTOM_DATA
1002
{
1000
#$AUX@_ToolInfo Properties
1070
           8
1000
Insert^JLine^JSingle@Line Single
1002
}
  0
LINE
  5
37
100
AcDbEntity
  8
Exterior View
370
           0
  6
Continuous
 62
           7
100
AcDbLine
 10
-0.170822902064
 20
-7.060639975619
 30
0.0
 11
1.295882872824
 21
-7.060639975619
 31
0.0
1001
TCAD
1000
TCW_CUSTOM_DATA
1002
{
1000
#$AUX@_ToolInfo Properties
1070
           8
1000
Insert^JLine^JPerpendicular@Line Perpendicular
1002
}
  0
LINE
  5
38
100
AcDbEntity
  8
Exterior View
370
           0
  6
Continuous
 62
           7
100
AcDbLine
 10
-0.240104893176
 20
-9.873639975619
 30
0.0
 11
1.365164863936
 21
-9.873639975619
 31
0.0
1001
TCAD
1000
TCW_CUSTOM_DATA
1002
{
1000
#$AUX@_ToolInfo Properties
1070
           8
1000
Insert^JLine^JPerpendicular@Line Perpendicular
1002
}
  0
LINE
  5
39
100
AcDbEntity
  8
Exterior View
370
           0
  6
Continuous
 62
           7
100
AcDbLine
 10
-0.019156175686
 20
-0.902639975619
 30
0.0
 11
1.144216146446
 21
-0.902639975619
 31
0.0
1001
TCAD
1000
TCW_CUSTOM_DATA
1002
{
1000
#$AUX@_ToolInfo Properties
1070
           8
1000
Insert^JLine^JPerpendicular@Line Perpendicular
1002
}
  0
LINE
  5
3A
100
AcDbEntity
  8
Exterior View
370
           0
  6
Continuous
 62
           7
100
AcDbLine
 10
-0.037258651147
 20
-1.637639975619
 30
0.0
 11
1.162318621906
 21
-1.637639975619
 31
0.0
1001
TCAD
1000
TCW_CUSTOM_DATA
1002
{
1000
#$AUX@_ToolInfo Properties
1070
           8
1000
Insert^JLine^JPerpendicular@Line Perpendicular
1002
}
  0
LINE
  5
3B
100
AcDbEntity
  8
Exterior View
370
           0
  6
Continuous
 62
           7
100
AcDbLine
 10
-0.054351328656
 20
-2.331639975619
 30
0.0
 11
1.179411299416
 21
-2.331639975619
 31
0.0
1001
TCAD
1000
TCW_CUSTOM_DATA
1002
{
1000
#$AUX@_ToolInfo Properties
1070
           8
1000
Insert^JLine^JPerpendicular@Line Perpendicular
1002
}
  0
LINE
  5
3C
100
AcDbEntity
  8
Exterior View
370
           0
  6
Continuous
 62
           7
100
AcDbLine
 10
-0.160675664115
 20
-6.648639975619
 30
0.0
 11
1.285735634875
 21
-6.648639975619
 31
0.0
1001
TCAD
1000
TCW_CUSTOM_DATA
1002
{
1000
#$AUX@_ToolInfo Properties
1070
           8
1000
Insert^JLine^JPerpendicular@Line Perpendicular
1002
}
  0
LINE
  5
3D
100
AcDbEntity
  8
Exterior View
370
           0
  6
Continuous
 62
           7
100
AcDbLine
 10
-0.149912695712
 20
-6.211639975619
 30
0.0
 11
1.274972666472
 21
-6.211639975619
 31
0.0
1001
TCAD
1000
TCW_CUSTOM_DATA
1002
{
1000
#$AUX@_ToolInfo Properties
1070
           8
1000
Insert^JLine^JPerpendicular@Line Perpendicular
1002
}
  0
LINE
  5
3E
100
AcDbEntity
  8
Exterior View
370
           0
  6
Continuous
 62
           7
100
AcDbLine
 10
-0.138509367633
 20
-5.748639975619
 30
0.0
 11
1.263569338393
 21
-5.748639975619
 31
0.0
1001
TCAD
1000
TCW_CUSTOM_DATA
1002
{
1000
#$AUX@_ToolInfo Properties
1070
           8
1000
Insert^JLine^JPerpendicular@Line Perpendicular
1002
}
  0
LINE
  5
3F
100
AcDbEntity
  8
Exterior View
370
           0
  6
Continuous
 62
           7
100
AcDbLine
 10
-0.126416421441
 20
-5.257639975619
 30
0.0
 11
1.251476392201
 21
-5.257639975619
 31
0.0
1001
TCAD
1000
TCW_CUSTOM_DATA
1002
{
1000
#$AUX@_ToolInfo Properties
1070
           8
1000
Insert^JLine^JPerpendicular@Line Perpendicular
1002
}
  0
LINE
  5
40
100
AcDbEntity
  8
Exterior View
370
           0
  6
Continuous
 62
           7
100
AcDbLine
 10
-0.113633857136
 20
-4.738639975619
 30
0.0
 11
1.238693827896
 21
-4.738639975619
 31
0.0
1001
TCAD
1000
TCW_CUSTOM_DATA
1002
{
1000
#$AUX@_ToolInfo Properties
1070
           8
1000
Insert^JLine^JPerpendicular@Line Perpendicular
1002
}
  0
LINE
  5
41
100
AcDbEntity
  8
Exterior View
370
           0
  6
Continuous
 62
           7
100
AcDbLine
 10
-0.100063157846
 20
-4.187639975619
 30
0.0
 11
1.225123128606
 21
-4.187639975619
 31
0.0
1001
TCAD
1000
TCW_CUSTOM_DATA
1002
{
1000
#$AUX@_ToolInfo Properties
1070
           8
1000
Insert^JLine^JPerpendicular@Line Perpendicular
1002
}
  0
LINE
  5
42
100
AcDbEntity
  8
Exterior View
370
           0
  6
Continuous
 62
           7
100
AcDbLine
 10
-0.070458837433
 20
-2.985639975619
 30
0.0
 11
1.195518808193
 21
-2.985639975619
 31
0.0
1001
TCAD
1000
TCW_CUSTOM_DATA
1002
{
1000
#$AUX@_ToolInfo Properties
1070
           8
1000
Insert^JLine^JPerpendicular@Line Perpendicular
1002
}
  0
LINE
  5
43
100
AcDbEntity
  8
Exterior View
370
           0
  6
Continuous
 62
           7
100
AcDbLine
 10
-0.085679694351
 20
-3.603639975619
 30
0.0
 11
1.210739665111
 21
-3.603639975619
 31
0.0
1001
TCAD
1000
TCW_CUSTOM_DATA
1002
{
1000
#$AUX@_ToolInfo Properties
1070
           8
1000
Insert^JLine^JPerpendicular@Line Perpendicular
1002
}
  0
LINE
  5
44
100
AcDbEntity
  8
Exterior View
370
           0
  6
Continuous
 62
           7
100
AcDbLine
 10
-0.198013559078
 20
-8.164639975619
 30
0.0
 11
1.323073529838
 21
-8.164639975619
 31
0.0
1001
TCAD
1000
TCW_CUSTOM_DATA
1002
{
1000
#$AUX@_ToolInfo Properties
1070
           8
1000
Insert^JLine^JPerpendicular@Line Perpendicular
1002
}
  0
LINE
  5
45
100
AcDbEntity
  8
Exterior View
370
           0
  6
Continuous
 62
           7
100
AcDbLine
 10
-0.189467220323
 20
-7.817639975619
 30
0.0
 11
1.314527191083
 21
-7.817639975619
 31
0.0
1001
TCAD
1000
TCW_CUSTOM_DATA
1002
{
1000
#$AUX@_ToolInfo Properties
1070
           8
1000
Insert^JLine^JPerpendicular@Line Perpendicular
1002
}
  0
LINE
  5
46
100
AcDbEntity
  8
Exterior View
370
           0
  6
Continuous
 62
           7
100
AcDbLine
 10
-0.180428297202
 20
-7.450639975619
 30
0.0
 11
1.305488267962
 21
-7.450639975619
 31
0.0
1001
TCAD
1000
TCW_CUSTOM_DATA
1002
{
1000
#$AUX@_ToolInfo Properties
1070
           8
1000
Insert^JLine^JPerpendicular@Line Perpendicular
1002
}
  0
LINE
  5
47
100
AcDbEntity
  8
Exterior View
370
           0
  6
Continuous
 62
           7
100
AcDbLine
 10
-0.206091942685
 20
-8.492639975619
 30
0.0
 11
1.331151913445
 21
-8.492639975619
 31
0.0
1001
TCAD
1000
TCW_CUSTOM_DATA
1002
{
1000
#$AUX@_ToolInfo Properties
1070
           8
1000
Insert^JLine^JPerpendicular@Line Perpendicular
1002
}
  0
LINE
  5
48
100
AcDbEntity
  8
Exterior View
370
           0
  6
Continuous
 62
           7
100
AcDbLine
 10
-0.213702371144
 20
-8.801639975619
 30
0.0
 11
1.338762341904
 21
-8.801639975619
 31
0.0
1001
TCAD
1000
TCW_CUSTOM_DATA
1002
{
1000
#$AUX@_ToolInfo Properties
1070
           8
1000
Insert^JLine^JPerpendicular@Line Perpendicular
1002
}
  0
LINE
  5
49
100
AcDbEntity
  8
Exterior View
370
           0
  6
Continuous
 62
           7
100
AcDbLine
 10
-0.220869473673
 20
-9.092639975619
 30
0.0
 11
1.345929444433
 21
-9.092639975619
 31
0.0
1001
TCAD
1000
TCW_CUSTOM_DATA
1002
{
1000
#$AUX@_ToolInfo Properties
1070
           8
1000
Insert^JLine^JPerpendicular@Line Perpendicular
1002
}
  0
LINE
  5
4A
100
AcDbEntity
  8
Exterior View
370
           0
  6
Continuous
 62
           7
100
AcDbLine
 10
-0.227667137927
 20
-9.368639975619
 30
0.0
 11
1.352727108687
 21
-9.368639975619
 31
0.0
1001
TCAD
1000
TCW_CUSTOM_DATA
1002
{
1000
#$AUX@_ToolInfo Properties
1070
           8
1000
Insert^JLine^JPerpendicular@Line Perpendicular
1002
}
  0
LINE
  5
4B
100
AcDbEntity
  8
Exterior View
370
           0
  6
Continuous
 62
           7
100
AcDbLine
 10
-0.234070734689
 20
-9.628639975619
 30
0.0
 11
1.359130705449
 21
-9.628639975619
 31
0.0
1001
TCAD
1000
TCW_CUSTOM_DATA
1002
{
1000
#$AUX@_ToolInfo Properties
1070
           8
1000
Insert^JLine^JPerpendicular@Line Perpendicular
1002
}
  0
LINE
  5
4C
100
AcDbEntity
  8
Exterior View
370
           0
  6
Continuous
 62
           7
100
AcDbLine
 10
-0.245794242606
 20
-10.104639975619
 30
0.0
 11
1.370854213366
 21
-10.104639975619
 31
0.0
1001
TCAD
1000
TCW_CUSTOM_DATA
1002
{
1000
#$AUX@_ToolInfo Properties
1070
           8
1000
Insert^JLine^JPerpendicular@Line Perpendicular
1002
}
  0
LINE
  5
4D
100
AcDbEntity
  8
Exterior View
370
           0
  6
Continuous
 62
           7
100
AcDbLine
 10
0.00002998538
 20
-0.123639975619
 30
0.0
 11
0.00002998538
 21
0.001369011145
 31
0.0
1001
TCAD
1000
TCW_CUSTOM_DATA
1002
{
1000
#$AUX@_ToolInfo Properties
1070
           8
1000
Insert^JLine^JPerpendicular@Line Perpendicular
1002
}
  0
LINE
  5
4E
100
AcDbEntity
  8
Exterior View
370
           0
  6
Continuous
 62
           7
100
AcDbLine
 10
1.12502998538
 20
-0.123639975619
 30
0.0
 11
1.12502998538
 21
0.001369011145
 31
0.0
1001
TCAD
1000
TCW_CUSTOM_DATA
1002
{
1000
#$AUX@_ToolInfo Properties
1070
           8
1000
Insert^JLine^JPerpendicular@Line Perpendicular
1002
}
  0
LINE
  5
4F
100
AcDbEntity
  8
Exterior View
370
           0
  6
Continuous
 62
           7
100
AcDbLine
 10
1.12502998538
 20
0.001369011145
 30
0.0
 11
0.00002998538
 21
0.001369011145
 31
0.0
1001
TCAD
1000
TCW_CUSTOM_DATA
1002
{
1000
#$AUX@_ToolInfo Properties
1070
           8
1000
Insert^JLine^JPerpendicular@Line Perpendicular
1002
}
  0
LINE
  5
50
100
AcDbEntity
  8
Exterior View
370
           0
  6
Continuous
 62
           7
100
AcDbLine
 10
-0.249352482489
 20
-10.249112278295
 30
0.0
 11
0.00002998538
 21
-0.123639975619
 31
0.0
1001
TCAD
1000
TCW_CUSTOM_DATA
1002
{
1000
#$AUX@_ToolInfo Properties
1070
           8
1000
Insert^JLine^JSingle@Line Single
1002
}
  0
LINE
  5
51
100
AcDbEntity
  8
Exterior View
370
           0
  6
Continuous
 62
           7
100
AcDbLine
 10
1.374412453249
 20
-10.249112278295
 30
0.0
 11
1.12502998538
 21
-0.123639975619
 31
0.0
1001
TCAD
1000
TCW_CUSTOM_DATA
1002
{
1000
#$AUX@_ToolInfo Properties
1070
           8
1000
Insert^JLine^JSingle@Line Single
1002
}
  0
LINE
  5
52
100
AcDbEntity
  8
Exterior View
370
           0
  6
Continuous
 62
           7
100
AcDbLine
 10
0.17190498538
 20
0.001369011145
 30
0.0
 11
0.17190498538
 21
-0.123639975619
 31
0.0
1001
TCAD
1000
TCW_CUSTOM_DATA
1002
{
1000
#$AUX@_ToolInfo Properties
1070
           8
1000
Insert^JLine^JPerpendicular@Line Perpendicular
1002
}
  0
LINE
  5
53
100
AcDbEntity
  8
Exterior View
370
           0
  6
Continuous
 62
           7
100
AcDbLine
 10
0.42717998538
 20
0.001369011145
 30
0.0
 11
0.42717998538
 21
-0.123639975619
 31
0.0
1001
TCAD
1000
TCW_CUSTOM_DATA
1002
{
1000
#$AUX@_ToolInfo Properties
1070
           8
1000
Insert^JLine^JPerpendicular@Line Perpendicular
1002
}
  0
LINE
  5
54
100
AcDbEntity
  8
Exterior View
370
           0
  6
Continuous
 62
           7
100
AcDbLine
 10
0.69797998538
 20
0.001369011145
 30
0.0
 11
0.69797998538
 21
-0.123639975619
 31
0.0
1001
TCAD
1000
TCW_CUSTOM_DATA
1002
{
1000
#$AUX@_ToolInfo Properties
1070
           8
1000
Insert^JLine^JPerpendicular@Line Perpendicular
1002
}
  0
LINE
  5
55
100
AcDbEntity
  8
Exterior View
370
           0
  6
Continuous
 62
           7
100
AcDbLine
 10
0.96877998538
 20
0.001369011145
 30
0.0
 11
0.96877998538
 21
-0.123639975619
 31
0.0
1001
TCAD
1000
TCW_CUSTOM_DATA
1002
{
1000
#$AUX@_ToolInfo Properties
1070
           8
1000
Insert^JLine^JPerpendicular@Line Perpendicular
1002
}
  0
ARC
  5
56
100
AcDbEntity
  8
Exterior View
370
           0
  6
Continuous
 62
           7
100
AcDbCircle
 10
0.56252998538
 20
-4.96674863544
 30
0.0
 40
5.34439134018
100
AcDbArc
 50
-98.737803430299
 51
-81.262196569701
  0
POINT
  5
57
100
AcDbEntity
  8
Exterior View
  6
Continuous
 62
           7
100
AcDbPoint
 10
-0.142311995415
 20
1.676033630441
 30
0.0
1001
TCAD
1000
TCW_CUSTOM_DATA
1002
{
1000
#$AUX@_ToolInfo Properties
1070
           8
1000
Insert^JPoint^JCross@Point Cross
1002
}
1000
TC25ExternalObject
1002
{
1000
TCW30POINT
1000

1070
           0
1071
        0
1040
1.0
1040
0.0
1000
Continuous
1000
Exterior View
1070
          21
1071
        1
1071
      242
1010
-0.142311995415
1020
1.676033630441
1030
0.0
1070
           3
1071
-2147483645
1070
           1
1000
#$AUX@_ToolInfo Properties
1070
           8
1000
Insert^JPoint^JCross@Point Cross
1000
$POINTSIZE
1070
           5
1040
0.25
1000
$POINTTYPE
1070
          18
1070
           3
1000
ExplodeScale
1070
           5
1040
1.0
1002
}
  0
ELLIPSE
  5
58
100
AcDbEntity
  8
Exterior View
370
           0
  6
Continuous
 62
           7
 48
0.20000000298
100
AcDbEllipse
 10
-0.142311995415
 20
1.676033630441
 30
0.0
 11
0.1250000000001051
 21
0.0
 31
0.0
210
0.0
220
0.0
230
1.0
 40
0.965925826289
 41
-0.1673902011416532
 42
6.1157951060379334
1001
TCAD
1000
TCW_CUSTOM_DATA
1002
{
1000
#$AUX@_ToolInfo Properties
1070
           8
1000
Insert^JCircle^JCenterAndPoint@Circle CenterAndPoint
1002
}
  0
LINE
  5
59
100
AcDbEntity
  8
Hidden
370
           0
  6
HIDDEN
 62
           7
 48
0.20000000298
100
AcDbLine
 10
-0.344656628793
 20
2.149887161044
 30
0.0
 11
0.209981276013
 21
2.059362622225
 31
0.0
1001
TCAD
1000
TCW_CUSTOM_DATA
1002
{
1000
#$AUX@_ToolInfo Properties
1070
           8
1000
Insert^JLine^JSingle@Line Single
1002
}
  0
LINE
  5
5A
100
AcDbEntity
  8
Hidden
370
           0
  6
HIDDEN
 62
           7
 48
0.20000000298
100
AcDbLine
 10
-0.419630947818
 20
1.72129589985
 30
0.0
 11
-0.344656628793
 21
2.149887161044
 31
0.0
1001
TCAD
1000
TCW_CUSTOM_DATA
1002
{
1000
#$AUX@_ToolInfo Properties
1070
           8
1000
Insert^JLine^JSingle@Line Single
1002
}
  0
ELLIPSE
  5
5B
100
AcDbEntity
  8
Hidden
370
           0
  6
HIDDEN
 62
           7
 48
0.20000000298
100
AcDbEllipse
 10
0.194645343216
 20
1.428175261124
 30
0.0
 11
0.0500000000000384
 21
0.0
 31
0.0
210
0.0
220
0.0
230
1.0
 40
0.965925826289
 41
-1.9127194531359399
 42
4.3704658540436458
1001
TCAD
1000
TCW_CUSTOM_DATA
1002
{
1000
#$AUX@_ToolInfo Properties
1070
           8
1000
Insert^JCircle^JCenterAndPoint@Circle CenterAndPoint
1002
}
  0
ELLIPSE
  5
5C
100
AcDbEntity
  8
Hidden
370
           0
  6
HIDDEN
 62
           7
 48
0.20000000298
100
AcDbEllipse
 10
0.194645343216
 20
1.428175261124
 30
0.0
 11
0.0843750000000664
 21
0.0
 31
0.0
210
0.0
220
0.0
230
1.0
 40
0.965925826289
 41
-1.7381865279364501
 42
0.674340308042913
1001
TCAD
1000
TCW_CUSTOM_DATA
1002
{
1000
#$AUX@_ToolInfo Properties
1070
           8
1000
Insert^JArc^JCenterAndPoint@Arc CenterAndPoint
1002
}
  0
LINE
  5
5D
100
AcDbEntity
  8
Hidden
370
           0
  6
HIDDEN
 62
           7
 48
0.20000000298
100
AcDbLine
 10
0.180587658399
 20
1.34781439965
 30
0.0
 11
-0.189170944806
 21
1.408164092195
 31
0.0
1001
TCAD
1000
TCW_CUSTOM_DATA
1002
{
1000
#$AUX@_ToolInfo Properties
1070
           8
1000
Insert^JLine^JSingle@Line Single
1002
}
  0
ELLIPSE
  5
5E
100
AcDbEntity
  8
Hidden
370
           0
  6
HIDDEN
 62
           7
 48
0.20000000298
100
AcDbEllipse
 10
-0.142311995415
 20
1.676033630441
 30
0.0
 11
0.2812500000001963
 21
0.0
 31
0.0
210
0.0
220
0.0
230
1.0
 40
0.965925826289
 41
2.9742024524480222
 42
6.1157949702817751
  0
LINE
  5
5F
100
AcDbEntity
  8
Hidden
370
           0
  6
HIDDEN
 62
           7
 48
0.20000000298
100
AcDbLine
 10
0.209981276013
 20
2.059362622225
 30
0.0
 11
0.135006950627
 21
1.630771324667
 31
0.0
1001
TCAD
1000
TCW_CUSTOM_DATA
1002
{
1000
#$AUX@_ToolInfo Properties
1070
           8
1000
Insert^JLine^JPerpendicular@Line Perpendicular
1002
}
  0
LINE
  5
60
100
AcDbEntity
  8
Hidden
370
           0
  6
HIDDEN
 62
           7
 48
0.20000000298
100
AcDbLine
 10
0.26055226789
 20
1.479062392685
 30
0.0
 11
0.135006950627
 21
1.630771324667
 31
0.0
1001
TCAD
1000
TCW_CUSTOM_DATA
1002
{
1000
#$AUX@_ToolInfo Properties
1070
           8
1000
Insert^JLine^JTanFromArc@Line TanFromArc
1002
}
  0
ELLIPSE
  5
61
100
AcDbEntity
  8
Exterior View
370
           0
  6
Continuous
 62
           7
100
AcDbEllipse
 10
-0.893647357289
 20
2.091520697449
 30
0.0
 11
0.3437500000002364
 21
0.0
 31
0.0
210
0.0
220
0.0
230
1.0
 40
0.965925826289
 41
1.4034060325954563
 42
4.5449987792429374
  0
ELLIPSE
  5
62
100
AcDbEntity
  8
Exterior View
370
           0
  6
Continuous
 62
           7
100
AcDbEllipse
 10
-0.899279989881
 20
1.878148582212
 30
0.0
 11
0.1250000000001003
 21
0.0
 31
0.0
210
0.0
220
0.0
230
1.0
 40
0.965925826289
 41
-1.738186527936467
 42
-0.1673902011417455
1001
TCAD
1000
TCW_CUSTOM_DATA
1002
{
1000
#$AUX@_ToolInfo Properties
1070
           8
1000
Insert^JArc^JTanToTwoEntities@Arc TanToTwoEntities
1002
}
  0
ELLIPSE
  5
63
100
AcDbEntity
  8
Exterior View
370
           0
  6
Continuous
 62
           7
100
AcDbEllipse
 10
-0.826388290829
 20
2.294834530595
 30
0.0
 11
0.1250000000000771
 21
0.0
 31
0.0
210
0.0
220
0.0
230
1.0
 40
0.965925826289
 41
-0.1673902011418235
 42
1.4034061256530694
1001
TCAD
1000
TCW_CUSTOM_DATA
1002
{
1000
#$AUX@_ToolInfo Properties
1070
           8
1000
Insert^JArc^JTanToTwoEntities@Arc TanToTwoEntities
1002
}
  0
LINE
  5
64
100
AcDbEntity
  8
Exterior View
370
           0
  6
Continuous
 62
           7
100
AcDbLine
 10
-0.920106174026
 20
1.759095451559
 30
0.0
 11
-0.950919406544
 21
1.764124595148
 31
0.0
  0
LINE
  5
65
100
AcDbEntity
  8
Exterior View
370
           0
  6
Continuous
 62
           7
100
AcDbLine
 10
-0.703135422784
 20
2.274717968187
 30
0.0
 11
-0.776027122767
 21
1.858032014482
 31
0.0
1001
TCAD
1000
TCW_CUSTOM_DATA
1002
{
1000
#$AUX@_ToolInfo Properties
1070
           8
1000
Insert^JLine^JSingle@Line Single
1002
}
  0
LINE
  5
66
100
AcDbEntity
  8
Hidden
370
           0
  6
HIDDEN
 62
           7
 48
0.20000000298
100
AcDbLine
 10
-0.390648869145
 20
1.886972171567
 30
0.0
 11
-0.437527876079
 21
1.894623470633
 31
0.0
  0
LINE
  5
67
100
AcDbEntity
  8
Exterior View
370
           0
  6
Continuous
 62
           7
100
AcDbLine
 10
-0.437527876079
 20
1.894623470633
 30
0.0
 11
-0.76040747235
 21
1.947321864112
 31
0.0
  0
LINE
  5
68
100
AcDbEntity
  8
Hidden
370
           0
  6
HIDDEN
 62
           7
 48
0.20000000298
100
AcDbLine
 10
-0.348996469687
 20
2.125078427785
 30
0.0
 11
-0.395818977247
 21
2.132720505376
 31
0.0
  0
LINE
  5
69
100
AcDbEntity
  8
Exterior View
370
           0
  6
Continuous
 62
           7
100
AcDbLine
 10
-0.395818977247
 20
2.132720505376
 30
0.0
 11
-0.718755072891
 21
2.185428120331
 31
0.0
  0
POINT
  5
6A
100
AcDbEntity
  8
Exterior View
  6
Continuous
 62
           7
100
AcDbPoint
 10
0.03286528523
 20
2.862161562437
 30
0.0
1001
TCAD
1000
TCW_CUSTOM_DATA
1002
{
1000
#$AUX@_ToolInfo Properties
1070
           8
1000
Insert^JPoint^JCross@Point Cross
1002
}
1000
TC25ExternalObject
1002
{
1000
TCW30POINT
1000

1070
           0
1071
        0
1040
1.0
1040
0.0
1000
Continuous
1000
Exterior View
1070
          21
1071
        1
1071
      242
1010
0.03286528523
1020
2.862161562437
1030
0.0
1070
           3
1071
-2147483645
1070
           1
1000
#$AUX@_ToolInfo Properties
1070
           8
1000
Insert^JPoint^JCross@Point Cross
1000
$POINTSIZE
1070
           5
1040
0.25
1000
$POINTTYPE
1070
          18
1070
           3
1000
ExplodeScale
1070
           5
1040
1.0
1002
}
  0
ELLIPSE
  5
6B
100
AcDbEntity
  8
Exterior View
370
           0
  6
Continuous
 62
           7
 48
0.20000000298
100
AcDbEllipse
 10
0.03286528523
 20
2.862161562437
 30
0.0
 11
0.1250000000005221
 21
0.0
 31
0.0
210
0.0
220
0.0
230
1.0
 40
0.965925826289
 41
-0.1160710430554785
 42
6.1671142641241081
1001
TCAD
1000
TCW_CUSTOM_DATA
1002
{
1000
#$AUX@_ToolInfo Properties
1070
           8
1000
Insert^JCircle^JCenterAndPoint@Circle CenterAndPoint
1002
}
  0
LINE
  5
6C
100
AcDbEntity
  8
Hidden
370
           0
  6
HIDDEN
 62
           7
 48
0.20000000298
100
AcDbLine
 10
-0.19437750644
 20
3.325365323855
 30
0.0
 11
0.364337608765
 21
3.262441575923
 31
0.0
1001
TCAD
1000
TCW_CUSTOM_DATA
1002
{
1000
#$AUX@_ToolInfo Properties
1070
           8
1000
Insert^JLine^JSingle@Line Single
1002
}
  0
LINE
  5
6D
100
AcDbEntity
  8
Hidden
370
           0
  6
HIDDEN
 62
           7
 48
0.20000000298
100
AcDbLine
 10
-0.246492272372
 20
2.893623436403
 30
0.0
 11
-0.19437750644
 21
3.325365323855
 31
0.0
1001
TCAD
1000
TCW_CUSTOM_DATA
1002
{
1000
#$AUX@_ToolInfo Properties
1070
           8
1000
Insert^JLine^JSingle@Line Single
1002
}
  0
ELLIPSE
  5
6E
100
AcDbEntity
  8
Hidden
370
           0
  6
HIDDEN
 62
           7
 48
0.20000000298
100
AcDbEllipse
 10
0.382541818605
 20
2.63132532139
 30
0.0
 11
0.0500000000002325
 21
0.0
 31
0.0
210
0.0
220
0.0
230
1.0
 40
0.965925826288
 41
-1.86140029504986
 42
4.4217850121297264
1001
TCAD
1000
TCW_CUSTOM_DATA
1002
{
1000
#$AUX@_ToolInfo Properties
1070
           8
1000
Insert^JCircle^JCenterAndPoint@Circle CenterAndPoint
1002
}
  0
ELLIPSE
  5
6F
100
AcDbEntity
  8
Hidden
370
           0
  6
HIDDEN
 62
           7
 48
0.20000000298
100
AcDbEllipse
 10
0.382541818605
 20
2.63132532139
 30
0.0
 11
0.0843750000003332
 21
0.0
 31
0.0
210
0.0
220
0.0
230
1.0
 40
0.965925826289
 41
-1.6868673698505141
 42
0.7256594661291616
1001
TCAD
1000
TCW_CUSTOM_DATA
1002
{
1000
#$AUX@_ToolInfo Properties
1070
           8
1000
Insert^JArc^JCenterAndPoint@Arc CenterAndPoint
1002
}
  0
LINE
  5
70
100
AcDbEntity
  8
Hidden
370
           0
  6
HIDDEN
 62
           7
 48
0.20000000298
100
AcDbLine
 10
0.372770299992
 20
2.550373717492
 30
0.0
 11
0.000293556522
 21
2.59232288278
 31
0.0
1001
TCAD
1000
TCW_CUSTOM_DATA
1002
{
1000
#$AUX@_ToolInfo Properties
1070
           8
1000
Insert^JLine^JSingle@Line Single
1002
}
  0
ELLIPSE
  5
71
100
AcDbEntity
  8
Hidden
370
           0
  6
HIDDEN
 62
           7
 48
0.20000000298
100
AcDbEllipse
 10
0.03286528523
 20
2.862161562437
 30
0.0
 11
0.2812500000011474
 21
0.0
 31
0.0
210
0.0
220
0.0
230
1.0
 40
0.965925826289
 41
3.0255216105342897
 42
6.1671141283680386
  0
LINE
  5
72
100
AcDbEntity
  8
Hidden
370
           0
  6
HIDDEN
 62
           7
 48
0.20000000298
100
AcDbLine
 10
0.364337608765
 20
3.262441575923
 30
0.0
 11
0.312222838411
 21
2.830699651839
 31
0.0
1001
TCAD
1000
TCW_CUSTOM_DATA
1002
{
1000
#$AUX@_ToolInfo Properties
1070
           8
1000
Insert^JLine^JPerpendicular@Line Perpendicular
1002
}
  0
LINE
  5
73
100
AcDbEntity
  8
Hidden
370
           0
  6
HIDDEN
 62
           7
 48
0.20000000298
100
AcDbLine
 10
0.445659552857
 20
2.685411063424
 30
0.0
 11
0.312222838411
 21
2.830699651839
 31
0.0
1001
TCAD
1000
TCW_CUSTOM_DATA
1002
{
1000
#$AUX@_ToolInfo Properties
1070
           8
1000
Insert^JLine^JTanFromArc@Line TanFromArc
1002
}
  0
ELLIPSE
  5
74
100
AcDbEntity
  8
Exterior View
370
           0
  6
Continuous
 62
           7
100
AcDbEllipse
 10
-0.739545847057
 20
3.239873900682
 30
0.0
 11
0.343750000001391
 21
0.0
 31
0.0
210
0.0
220
0.0
230
1.0
 40
0.965925826289
 41
1.4547251906817202
 42
4.5963179373291929
  0
ELLIPSE
  5
75
100
AcDbEntity
  8
Exterior View
370
           0
  6
Continuous
 62
           7
100
AcDbEllipse
 10
-0.733839685207
 20
3.026503608285
 30
0.0
 11
0.1250000000004939
 21
0.0
 31
0.0
210
0.0
220
0.0
230
1.0
 40
0.965925826289
 41
-1.6868673698504801
 42
-0.1160710430555519
1001
TCAD
1000
TCW_CUSTOM_DATA
1002
{
1000
#$AUX@_ToolInfo Properties
1070
           8
1000
Insert^JArc^JTanToTwoEntities@Arc TanToTwoEntities
1002
}
  0
ELLIPSE
  5
76
100
AcDbEntity
  8
Exterior View
370
           0
  6
Continuous
 62
           7
100
AcDbEllipse
 10
-0.683172551662
 20
3.44625266553
 30
0.0
 11
0.1250000000005221
 21
0.0
 31
0.0
210
0.0
220
0.0
230
1.0
 40
0.965925826289
 41
-0.1160710430554819
 42
1.4547252837393536
1001
TCAD
1000
TCW_CUSTOM_DATA
1002
{
1000
#$AUX@_ToolInfo Properties
1070
           8
1000
Insert^JArc^JTanToTwoEntities@Arc TanToTwoEntities
1002
}
  0
LINE
  5
77
100
AcDbEntity
  8
Exterior View
370
           0
  6
Continuous
 62
           7
100
AcDbLine
 10
-0.748315993379
 20
2.906575304447
 30
0.0
 11
-0.7793557377
 21
2.910071069989
 31
0.0
  0
LINE
  5
78
100
AcDbEntity
  8
Exterior View
370
           0
  6
Continuous
 62
           7
100
AcDbLine
 10
-0.559013636956
 20
3.432269612221
 30
0.0
 11
-0.609680771149
 21
3.012520549615
 31
0.0
1001
TCAD
1000
TCW_CUSTOM_DATA
1002
{
1000
#$AUX@_ToolInfo Properties
1070
           8
1000
Insert^JLine^JSingle@Line Single
1002
}
  0
LINE
  5
79
100
AcDbEntity
  8
Hidden
370
           0
  6
HIDDEN
 62
           7
 48
0.20000000298
100
AcDbLine
 10
-0.226346784345
 20
3.060517614454
 30
0.0
 11
-0.263116449577
 21
3.064658696526
 31
0.0
  0
LINE
  5
7A
100
AcDbEntity
  8
Exterior View
370
           0
  6
Continuous
 62
           7
100
AcDbLine
 10
-0.263116449577
 20
3.064658696526
 30
0.0
 11
-0.598823527815
 21
3.102466779742
 31
0.0
  0
LINE
  5
7B
100
AcDbEntity
  8
Hidden
370
           0
  6
HIDDEN
 62
           7
 48
0.20000000298
100
AcDbLine
 10
-0.197394136604
 20
3.300374218594
 30
0.0
 11
-0.236726951828
 21
3.30480396836
 31
0.0
  0
LINE
  5
7C
100
AcDbEntity
  8
Exterior View
370
           0
  6
Continuous
 62
           7
100
AcDbLine
 10
-0.236726951828
 20
3.30480396836
 30
0.0
 11
-0.569870880074
 21
3.342323383882
 31
0.0
  0
POINT
  5
7D
100
AcDbEntity
  8
Exterior View
  6
Continuous
 62
           7
100
AcDbPoint
 10
1.267371966175
 20
1.676033630441
 30
0.0
1001
TCAD
1000
TCW_CUSTOM_DATA
1002
{
1000
#$AUX@_ToolInfo Properties
1070
           8
1000
Insert^JPoint^JCross@Point Cross
1002
}
1000
TC25ExternalObject
1002
{
1000
TCW30POINT
1000

1070
           0
1071
        0
1040
1.0
1040
0.0
1000
Continuous
1000
Exterior View
1070
          21
1071
        1
1071
      242
1010
1.267371966175
1020
1.676033630441
1030
0.0
1070
           3
1071
-2147483645
1070
           1
1000
#$AUX@_ToolInfo Properties
1070
           8
1000
Insert^JPoint^JCross@Point Cross
1000
$POINTSIZE
1070
           5
1040
0.25
1000
$POINTTYPE
1070
          18
1070
           3
1000
ExplodeScale
1070
           5
1040
1.0
1002
}
  0
ELLIPSE
  5
7E
100
AcDbEntity
  8
Exterior View
370
           0
  6
Continuous
 62
           7
 48
0.20000000298
100
AcDbEllipse
 10
1.267371966175
 20
1.676033630441
 30
0.0
 11
0.1250000000001074
 21
0.0
 31
0.0
210
0.0
220
0.0
230
1.0
 40
0.965925826289
 41
-2.9742024524481416
 42
3.3089828547314446
1001
TCAD
1000
TCW_CUSTOM_DATA
1002
{
1000
#$AUX@_ToolInfo Properties
1070
           8
1000
Insert^JCircle^JCenterAndPoint@Circle CenterAndPoint
1002
}
  0
LINE
  5
7F
100
AcDbEntity
  8
Hidden
370
           0
  6
HIDDEN
 62
           7
 48
0.20000000298
100
AcDbLine
 10
1.469716599553
 20
2.149887161044
 30
0.0
 11
0.915078694746
 21
2.059362622225
 31
0.0
1001
TCAD
1000
TCW_CUSTOM_DATA
1002
{
1000
#$AUX@_ToolInfo Properties
1070
           8
1000
Insert^JLine^JSingle@Line Single
1002
}
  0
LINE
  5
80
100
AcDbEntity
  8
Hidden
370
           0
  6
HIDDEN
 62
           7
 48
0.20000000298
100
AcDbLine
 10
1.544690918578
 20
1.72129589985
 30
0.0
 11
1.469716599553
 21
2.149887161044
 31
0.0
1001
TCAD
1000
TCW_CUSTOM_DATA
1002
{
1000
#$AUX@_ToolInfo Properties
1070
           8
1000
Insert^JLine^JSingle@Line Single
1002
}
  0
ELLIPSE
  5
81
100
AcDbEntity
  8
Hidden
370
           0
  6
HIDDEN
 62
           7
 48
0.20000000298
100
AcDbEllipse
 10
0.930414627544
 20
1.428175261124
 30
0.0
 11
0.0500000000000384
 21
0.0
 31
0.0
210
0.0
220
0.0
230
1.0
 40
0.965925826289
 41
-1.2288732004538532
 42
5.0543121067257335
1001
TCAD
1000
TCW_CUSTOM_DATA
1002
{
1000
#$AUX@_ToolInfo Properties
1070
           8
1000
Insert^JCircle^JCenterAndPoint@Circle CenterAndPoint
1002
}
  0
ELLIPSE
  5
82
100
AcDbEntity
  8
Hidden
370
           0
  6
HIDDEN
 62
           7
 48
0.20000000298
100
AcDbEllipse
 10
0.930414627544
 20
1.428175261124
 30
0.0
 11
0.0843750000000775
 21
0.0
 31
0.0
210
0.0
220
0.0
230
1.0
 40
0.965925826289
 41
2.4672523455469006
 42
4.8797791815263993
1001
TCAD
1000
TCW_CUSTOM_DATA
1002
{
1000
#$AUX@_ToolInfo Properties
1070
           8
1000
Insert^JArc^JCenterAndPoint@Arc CenterAndPoint
1002
}
  0
LINE
  5
83
100
AcDbEntity
  8
Hidden
370
           0
  6
HIDDEN
 62
           7
 48
0.20000000298
100
AcDbLine
 10
0.944472312361
 20
1.34781439965
 30
0.0
 11
1.314230915565
 21
1.408164092195
 31
0.0
1001
TCAD
1000
TCW_CUSTOM_DATA
1002
{
1000
#$AUX@_ToolInfo Properties
1070
           8
1000
Insert^JLine^JSingle@Line Single
1002
}
  0
ELLIPSE
  5
84
100
AcDbEntity
  8
Hidden
370
           0
  6
HIDDEN
 62
           7
 48
0.20000000298
100
AcDbEllipse
 10
1.267371966175
 20
1.676033630441
 30
0.0
 11
0.281250000000194
 21
0.0
 31
0.0
210
0.0
220
0.0
230
1.0
 40
0.965925826289
 41
-2.9742023166919567
 42
0.1673902011417796
  0
LINE
  5
85
100
AcDbEntity
  8
Hidden
370
           0
  6
HIDDEN
 62
           7
 48
0.20000000298
100
AcDbLine
 10
0.915078694746
 20
2.059362622225
 30
0.0
 11
0.990053020133
 21
1.630771324667
 31
0.0
1001
TCAD
1000
TCW_CUSTOM_DATA
1002
{
1000
#$AUX@_ToolInfo Properties
1070
           8
1000
Insert^JLine^JPerpendicular@Line Perpendicular
1002
}
  0
LINE
  5
86
100
AcDbEntity
  8
Hidden
370
           0
  6
HIDDEN
 62
           7
 48
0.20000000298
100
AcDbLine
 10
0.86450770287
 20
1.479062392685
 30
0.0
 11
0.990053020133
 21
1.630771324667
 31
0.0
1001
TCAD
1000
TCW_CUSTOM_DATA
1002
{
1000
#$AUX@_ToolInfo Properties
1070
           8
1000
Insert^JLine^JTanFromArc@Line TanFromArc
1002
}
  0
ELLIPSE
  5
87
100
AcDbEntity
  8
Exterior View
370
           0
  6
Continuous
 62
           7
100
AcDbEllipse
 10
2.018707328049
 20
2.091520697449
 30
0.0
 11
0.3437500000002504
 21
0.0
 31
0.0
210
0.0
220
0.0
230
1.0
 40
0.965925826289
 41
-1.4034061256531505
 42
1.7381866209943753
  0
ELLIPSE
  5
88
100
AcDbEntity
  8
Exterior View
370
           0
  6
Continuous
 62
           7
100
AcDbEllipse
 10
2.024339960641
 20
1.878148582212
 30
0.0
 11
0.1250000000000887
 21
0.0
 31
0.0
210
0.0
220
0.0
230
1.0
 40
0.965925826289
 41
-2.974202452448016
 42
-1.4034061256531982
1001
TCAD
1000
TCW_CUSTOM_DATA
1002
{
1000
#$AUX@_ToolInfo Properties
1070
           8
1000
Insert^JArc^JTanToTwoEntities@Arc TanToTwoEntities
1002
}
  0
ELLIPSE
  5
89
100
AcDbEntity
  8
Exterior View
370
           0
  6
Continuous
 62
           7
100
AcDbEllipse
 10
1.951448261589
 20
2.294834530595
 30
0.0
 11
0.1250000000000771
 21
0.0
 31
0.0
210
0.0
220
0.0
230
1.0
 40
0.965925826289
 41
1.7381865279367237
 42
3.3089828547316165
1001
TCAD
1000
TCW_CUSTOM_DATA
1002
{
1000
#$AUX@_ToolInfo Properties
1070
           8
1000
Insert^JArc^JTanToTwoEntities@Arc TanToTwoEntities
1002
}
  0
LINE
  5
8A
100
AcDbEntity
  8
Exterior View
370
           0
  6
Continuous
 62
           7
100
AcDbLine
 10
1.828195393544
 20
2.274717968187
 30
0.0
 11
1.901087093527
 21
1.858032014482
 31
0.0
1001
TCAD
1000
TCW_CUSTOM_DATA
1002
{
1000
#$AUX@_ToolInfo Properties
1070
           8
1000
Insert^JLine^JSingle@Line Single
1002
}
  0
LINE
  5
8B
100
AcDbEntity
  8
Hidden
370
           0
  6
HIDDEN
 62
           7
 48
0.20000000298
100
AcDbLine
 10
1.515708839905
 20
1.886972171567
 30
0.0
 11
1.562587846839
 21
1.894623470633
 31
0.0
  0
LINE
  5
8C
100
AcDbEntity
  8
Exterior View
370
           0
  6
Continuous
 62
           7
100
AcDbLine
 10
1.562587846839
 20
1.894623470633
 30
0.0
 11
1.88546744311
 21
1.947321864112
 31
0.0
  0
LINE
  5
8D
100
AcDbEntity
  8
Hidden
370
           0
  6
HIDDEN
 62
           7
 48
0.20000000298
100
AcDbLine
 10
1.474056440447
 20
2.125078427785
 30
0.0
 11
1.520878948007
 21
2.132720505376
 31
0.0
  0
LINE
  5
8E
100
AcDbEntity
  8
Exterior View
370
           0
  6
Continuous
 62
           7
100
AcDbLine
 10
1.520878948007
 20
2.132720505376
 30
0.0
 11
1.843815043651
 21
2.185428120331
 31
0.0
  0
POINT
  5
8F
100
AcDbEntity
  8
Exterior View
  6
Continuous
 62
           7
100
AcDbPoint
 10
1.09219468553
 20
2.862161562437
 30
0.0
1001
TCAD
1000
TCW_CUSTOM_DATA
1002
{
1000
#$AUX@_ToolInfo Properties
1070
           8
1000
Insert^JPoint^JCross@Point Cross
1002
}
1000
TC25ExternalObject
1002
{
1000
TCW30POINT
1000

1070
           0
1071
        0
1040
1.0
1040
0.0
1000
Continuous
1000
Exterior View
1070
          21
1071
        1
1071
      242
1010
1.09219468553
1020
2.862161562437
1030
0.0
1070
           3
1071
-2147483645
1070
           1
1000
#$AUX@_ToolInfo Properties
1070
           8
1000
Insert^JPoint^JCross@Point Cross
1000
$POINTSIZE
1070
           5
1040
0.25
1000
$POINTTYPE
1070
          18
1070
           3
1000
ExplodeScale
1070
           5
1040
1.0
1002
}
  0
ELLIPSE
  5
90
100
AcDbEntity
  8
Exterior View
370
           0
  6
Continuous
 62
           7
 48
0.20000000298
100
AcDbEllipse
 10
1.09219468553
 20
2.862161562437
 30
0.0
 11
0.1250000000005221
 21
0.0
 31
0.0
210
0.0
220
0.0
230
1.0
 40
0.965925826289
 41
-3.025521610534347
 42
3.2576636966452392
1001
TCAD
1000
TCW_CUSTOM_DATA
1002
{
1000
#$AUX@_ToolInfo Properties
1070
           8
1000
Insert^JCircle^JCenterAndPoint@Circle CenterAndPoint
1002
}
  0
LINE
  5
91
100
AcDbEntity
  8
Hidden
370
           0
  6
HIDDEN
 62
           7
 48
0.20000000298
100
AcDbLine
 10
1.3194374772
 20
3.325365323855
 30
0.0
 11
0.760722361995
 21
3.262441575923
 31
0.0
1001
TCAD
1000
TCW_CUSTOM_DATA
1002
{
1000
#$AUX@_ToolInfo Properties
1070
           8
1000
Insert^JLine^JSingle@Line Single
1002
}
  0
LINE
  5
92
100
AcDbEntity
  8
Hidden
370
           0
  6
HIDDEN
 62
           7
 48
0.20000000298
100
AcDbLine
 10
1.371552243132
 20
2.893623436403
 30
0.0
 11
1.3194374772
 21
3.325365323855
 31
0.0
1001
TCAD
1000
TCW_CUSTOM_DATA
1002
{
1000
#$AUX@_ToolInfo Properties
1070
           8
1000
Insert^JLine^JSingle@Line Single
1002
}
  0
ELLIPSE
  5
93
100
AcDbEntity
  8
Hidden
370
           0
  6
HIDDEN
 62
           7
 48
0.20000000298
100
AcDbEllipse
 10
0.742518152155
 20
2.63132532139
 30
0.0
 11
0.0500000000002325
 21
0.0
 31
0.0
210
0.0
220
0.0
230
1.0
 40
0.965925826289
 41
-1.2801923585399484
 42
5.0029929486396378
1001
TCAD
1000
TCW_CUSTOM_DATA
1002
{
1000
#$AUX@_ToolInfo Properties
1070
           8
1000
Insert^JCircle^JCenterAndPoint@Circle CenterAndPoint
1002
}
  0
ELLIPSE
  5
94
100
AcDbEntity
  8
Hidden
370
           0
  6
HIDDEN
 62
           7
 48
0.20000000298
100
AcDbEllipse
 10
0.742518152155
 20
2.63132532139
 30
0.0
 11
0.0843750000003533
 21
0.0
 31
0.0
210
0.0
220
0.0
230
1.0
 40
0.965925826289
 41
2.4159331874606256
 42
4.828460023440285
1001
TCAD
1000
TCW_CUSTOM_DATA
1002
{
1000
#$AUX@_ToolInfo Properties
1070
           8
1000
Insert^JArc^JCenterAndPoint@Arc CenterAndPoint
1002
}
  0
LINE
  5
95
100
AcDbEntity
  8
Hidden
370
           0
  6
HIDDEN
 62
           7
 48
0.20000000298
100
AcDbLine
 10
0.752289670767
 20
2.550373717492
 30
0.0
 11
1.124766414237
 21
2.59232288278
 31
0.0
1001
TCAD
1000
TCW_CUSTOM_DATA
1002
{
1000
#$AUX@_ToolInfo Properties
1070
           8
1000
Insert^JLine^JSingle@Line Single
1002
}
  0
ELLIPSE
  5
96
100
AcDbEntity
  8
Hidden
370
           0
  6
HIDDEN
 62
           7
 48
0.20000000298
100
AcDbEllipse
 10
1.09219468553
 20
2.862161562437
 30
0.0
 11
0.2812500000011333
 21
0.0
 31
0.0
210
0.0
220
0.0
230
1.0
 40
0.965925826289
 41
-3.0255214747782038
 42
0.1160710430555205
  0
LINE
  5
97
100
AcDbEntity
  8
Hidden
370
           0
  6
HIDDEN
 62
           7
 48
0.20000000298
100
AcDbLine
 10
0.760722361995
 20
3.262441575923
 30
0.0
 11
0.812837132349
 21
2.830699651839
 31
0.0
1001
TCAD
1000
TCW_CUSTOM_DATA
1002
{
1000
#$AUX@_ToolInfo Properties
1070
           8
1000
Insert^JLine^JPerpendicular@Line Perpendicular
1002
}
  0
LINE
  5
98
100
AcDbEntity
  8
Hidden
370
           0
  6
HIDDEN
 62
           7
 48
0.20000000298
100
AcDbLine
 10
0.679400417903
 20
2.685411063424
 30
0.0
 11
0.812837132349
 21
2.830699651839
 31
0.0
1001
TCAD
1000
TCW_CUSTOM_DATA
1002
{
1000
#$AUX@_ToolInfo Properties
1070
           8
1000
Insert^JLine^JTanFromArc@Line TanFromArc
1002
}
  0
ELLIPSE
  5
99
100
AcDbEntity
  8
Exterior View
370
           0
  6
Continuous
 62
           7
100
AcDbEllipse
 10
1.864605817817
 20
3.239873900682
 30
0.0
 11
0.3437500000013943
 21
0.0
 31
0.0
210
0.0
220
0.0
230
1.0
 40
0.965925826289
 41
-1.4547252837393185
 42
1.6868674629080793
  0
ELLIPSE
  5
9A
100
AcDbEntity
  8
Exterior View
370
           0
  6
Continuous
 62
           7
100
AcDbEllipse
 10
1.858899655967
 20
3.026503608285
 30
0.0
 11
0.1250000000004955
 21
0.0
 31
0.0
210
0.0
220
0.0
230
1.0
 40
0.965925826289
 41
-3.0255216105341889
 42
-1.4547252837393141
1001
TCAD
1000
TCW_CUSTOM_DATA
1002
{
1000
#$AUX@_ToolInfo Properties
1070
           8
1000
Insert^JArc^JTanToTwoEntities@Arc TanToTwoEntities
1002
}
  0
ELLIPSE
  5
9B
100
AcDbEntity
  8
Exterior View
370
           0
  6
Continuous
 62
           7
100
AcDbEllipse
 10
1.808232522422
 20
3.44625266553
 30
0.0
 11
0.1250000000005238
 21
0.0
 31
0.0
210
0.0
220
0.0
230
1.0
 40
0.965925826289
 41
1.6868673698505514
 42
3.2576636966453054
1001
TCAD
1000
TCW_CUSTOM_DATA
1002
{
1000
#$AUX@_ToolInfo Properties
1070
           8
1000
Insert^JArc^JTanToTwoEntities@Arc TanToTwoEntities
1002
}
  0
LINE
  5
9C
100
AcDbEntity
  8
Exterior View
370
           0
  6
Continuous
 62
           7
100
AcDbLine
 10
1.873375964139
 20
2.906575304447
 30
0.0
 11
1.90441570846
 21
2.910071069989
 31
0.0
  0
LINE
  5
9D
100
AcDbEntity
  8
Exterior View
370
           0
  6
Continuous
 62
           7
100
AcDbLine
 10
1.684073607716
 20
3.432269612221
 30
0.0
 11
1.734740741909
 21
3.012520549615
 31
0.0
1001
TCAD
1000
TCW_CUSTOM_DATA
1002
{
1000
#$AUX@_ToolInfo Properties
1070
           8
1000
Insert^JLine^JSingle@Line Single
1002
}
  0
LINE
  5
9E
100
AcDbEntity
  8
Hidden
370
           0
  6
HIDDEN
 62
           7
 48
0.20000000298
100
AcDbLine
 10
1.351406755105
 20
3.060517614454
 30
0.0
 11
1.388176420337
 21
3.064658696526
 31
0.0
  0
LINE
  5
9F
100
AcDbEntity
  8
Exterior View
370
           0
  6
Continuous
 62
           7
100
AcDbLine
 10
1.388176420337
 20
3.064658696526
 30
0.0
 11
1.723883498575
 21
3.102466779742
 31
0.0
  0
LINE
  5
A0
100
AcDbEntity
  8
Hidden
370
           0
  6
HIDDEN
 62
           7
 48
0.20000000298
100
AcDbLine
 10
1.322454107364
 20
3.300374218594
 30
0.0
 11
1.361786922588
 21
3.30480396836
 31
0.0
  0
LINE
  5
A1
100
AcDbEntity
  8
Exterior View
370
           0
  6
Continuous
 62
           7
100
AcDbLine
 10
1.361786922588
 20
3.30480396836
 30
0.0
 11
1.694930850834
 21
3.342323383882
 31
0.0
  0
LINE
  5
A2
100
AcDbEntity
  8
Exterior View
370
           0
  6
Continuous
 62
           7
100
AcDbLine
 10
-0.699735924641
 20
3.569676727795
 30
0.0
 11
-0.668696227792
 21
3.5661809676
 31
0.0
1001
TCAD
1000
TCW_CUSTOM_DATA
1002
{
1000
#$AUX@_ToolInfo Properties
1070
           8
1000
Insert^JLine^JSingle@Line Single
1002
}
  0
LINE
  5
A3
100
AcDbEntity
  8
Exterior View
370
           0
  6
Continuous
 62
           7
100
AcDbLine
 10
-0.8055620911
 20
2.413887658704
 30
0.0
 11
-0.836375276492
 21
2.418916794601
 31
0.0
1001
TCAD
1000
TCW_CUSTOM_DATA
1002
{
1000
#$AUX@_ToolInfo Properties
1070
           8
1000
Insert^JLine^JSingle@Line Single
1002
}
  0
LINE
  5
A4
100
AcDbEntity
  8
Exterior View
370
           0
  6
Continuous
 62
           7
100
AcDbLine
 10
1.93062206186
 20
2.413887658704
 30
0.0
 11
1.961435247252
 21
2.418916794601
 31
0.0
1001
TCAD
1000
TCW_CUSTOM_DATA
1002
{
1000
#$AUX@_ToolInfo Properties
1070
           8
1000
Insert^JLine^JSingle@Line Single
1002
}
  0
LINE
  5
A5
100
AcDbEntity
  8
Exterior View
370
           0
  6
Continuous
 62
           7
100
AcDbLine
 10
2.04516616037
 20
1.759095454103
 30
0.0
 11
2.075979377304
 21
1.764124595148
 31
0.0
1001
TCAD
1000
TCW_CUSTOM_DATA
1002
{
1000
#$AUX@_ToolInfo Properties
1070
           8
1000
Insert^JLine^JSingle@Line Single
1002
}
  0
LINE
  5
A6
100
AcDbEntity
  8
Exterior View
370
           0
  6
Continuous
 62
           7
100
AcDbLine
 10
1.793756198552
 20
3.5661809676
 30
0.0
 11
1.824795895401
 21
3.569676727796
 31
0.0
1001
TCAD
1000
TCW_CUSTOM_DATA
1002
{
1000
#$AUX@_ToolInfo Properties
1070
           8
1000
Insert^JLine^JSingle@Line Single
1002
}
  0
LINE
  5
A7
100
AcDbEntity
  8
Exterior View
370
           0
  6
Continuous
 62
           7
100
AcDbLine
 10
0.17190498538
 20
0.001369011145
 30
0.0
 11
-0.018044171996
 21
1.689082858029
 31
0.0
1001
TCAD
1000
TCW_CUSTOM_DATA
1002
{
1000
#$AUX@_ToolInfo Properties
1070
           8
1000
Insert^JLine^JTanToArc@Line TanToArc
1002
}
  0
LINE
  5
A8
100
AcDbEntity
  8
Exterior View
370
           0
  6
Continuous
 62
           7
100
AcDbLine
 10
0.42717998538
 20
0.001369011145
 30
0.0
 11
0.157353622883
 21
2.873074976482
 31
0.0
1001
TCAD
1000
TCW_CUSTOM_DATA
1002
{
1000
#$AUX@_ToolInfo Properties
1070
           8
1000
Insert^JLine^JTanToArc@Line TanToArc
1002
}
  0
LINE
  5
A9
100
AcDbEntity
  8
Exterior View
370
           0
  6
Continuous
 62
           7
100
AcDbLine
 10
0.69797998538
 20
0.001369011145
 30
0.0
 11
0.967705971017
 21
2.873070964899
 31
0.0
1001
TCAD
1000
TCW_CUSTOM_DATA
1002
{
1000
#$AUX@_ToolInfo Properties
1070
           8
1000
Insert^JLine^JTanToArc@Line TanToArc
1002
}
  0
LINE
  5
AA
100
AcDbEntity
  8
Exterior View
370
           0
  6
Continuous
 62
           7
100
AcDbLine
 10
0.96877998538
 20
0.001369011145
 30
0.0
 11
1.142989460808
 21
1.688020157325
 31
0.0
1001
TCAD
1000
TCW_CUSTOM_DATA
1002
{
1000
#$AUX@_ToolInfo Properties
1070
           8
1000
Insert^JLine^JTanToArc@Line TanToArc
1002
}
  0
ARC
  5
AB
100
AcDbEntity
  8
Exterior View
370
           0
  6
Continuous
 62
           7
100
AcDbCircle
 10
-2.04472894365
 20
-0.147193074566
 30
0.0
 40
2.050148719278
100
AcDbArc
 50
4.155526641438
 51
43.697218462947
1001
TCAD
1000
TCW_CUSTOM_DATA
1002
{
1000
#$AUX@_ToolInfo Properties
1070
           8
1000
Insert^JArc^JTriplePoint132@Arc TriplePoint132
1002
}
  0
ARC
  5
AC
100
AcDbEntity
  8
Exterior View
370
           0
  6
Continuous
 62
           7
100
AcDbCircle
 10
3.16978891441
 20
-0.147193074566
 30
0.0
 40
2.050148719278
100
AcDbArc
 50
136.302781537053
 51
175.844473358562
1001
TCAD
1000
TCW_CUSTOM_DATA
1002
{
1000
#$AUX@_ToolInfo Properties
1070
           8
1000
Insert^JArc^JTriplePoint132@Arc TriplePoint132
1002
}
  0
ELLIPSE
  5
AD
100
AcDbEntity
  8
Exterior View
370
           0
  6
Continuous
 62
           7
100
AcDbEllipse
 10
-19.922471157259
 20
5.201728490926
 30
0.0
 11
19.783457622677084
 21
0.0
 31
0.0
210
0.0
220
0.0
230
1.0
 40
0.965925826289
 41
-0.2072745620501642
 42
-0.070004912219569
1001
TCAD
1000
TCW_CUSTOM_DATA
1002
{
1000
#$AUX@_ToolInfo Properties
1070
           8
1000
Insert^JArc^JTriplePoint132@Arc TriplePoint132
1002
}
  0
ELLIPSE
  5
AE
100
AcDbEntity
  8
Exterior View
370
           0
  6
Continuous
 62
           7
100
AcDbEllipse
 10
21.047531128019
 20
5.201728490926
 30
0.0
 11
19.783457622677076
 21
0.0
 31
0.0
210
0.0
220
0.0
230
1.0
 40
0.965925826289
 41
-3.0715877413702262
 42
-2.9343180915396316
1001
TCAD
1000
TCW_CUSTOM_DATA
1002
{
1000
#$AUX@_ToolInfo Properties
1070
           8
1000
Insert^JArc^JTriplePoint132@Arc TriplePoint132
1002
}
  0
ELLIPSE
  5
AF
100
AcDbEntity
  8
Exterior View
370
           0
  6
Continuous
 62
           7
100
AcDbEllipse
 10
0.56252998538
 20
7.426923800749
 30
0.0
 11
3.762998305879091
 21
0.0
 31
0.0
210
0.0
220
0.0
230
1.0
 40
0.965925826289
 41
-1.7714492041147285
 42
-1.3701434494752267
1001
TCAD
1000
TCW_CUSTOM_DATA
1002
{
1000
#$AUX@_ToolInfo Properties
1070
           8
1000
Insert^JArc^JTriplePoint132@Arc TriplePoint132
1002
}
  0
ELLIPSE
  5
B0
100
AcDbEntity
  8
Exterior View
370
           0
  6
Continuous
 62
           7
100
AcDbEllipse
 10
-7.467676074839
 20
-7.698921083256
 30
0.0
 11
7.2804159947619098
 21
0.0
 31
0.0
210
0.0
220
0.0
230
1.0
 40
0.6622846562
 41
-0.6287160263137153
 42
-0.0246242401308676
  0
LINE
  5
B1
100
AcDbEntity
  8
Exterior View
370
           0
  6
Continuous
 62
           7
100
AcDbLine
 10
0.17190498538
 20
-0.123639975619
 30
0.0
 11
-0.17965751462
 21
-13.954639975619
 31
0.0
1001
TCAD
1000
TCW_CUSTOM_DATA
1002
{
1000
#$AUX@_ToolInfo Properties
1070
           8
1000
Insert^JLine^JSingle@Line Single
1002
}
  0
LINE
  5
B2
100
AcDbEntity
  8
Exterior View
370
           0
  6
Continuous
 62
           7
100
AcDbLine
 10
0.30471748538
 20
-13.995755765093
 30
0.0
 11
0.42717998538
 21
-0.123639975619
 31
0.0
1001
TCAD
1000
TCW_CUSTOM_DATA
1002
{
1000
#$AUX@_ToolInfo Properties
1070
           8
1000
Insert^JLine^JSingle@Line Single
1002
}
  0
LINE
  5
B3
100
AcDbEntity
  8
Exterior View
370
           0
  6
Continuous
 62
           7
100
AcDbLine
 10
0.69797998538
 20
-0.123639975619
 30
0.0
 11
0.80471748538
 21
-14.038197870356
 31
0.0
1001
TCAD
1000
TCW_CUSTOM_DATA
1002
{
1000
#$AUX@_ToolInfo Properties
1070
           8
1000
Insert^JLine^JSingle@Line Single
1002
}
  0
LINE
  5
B4
100
AcDbEntity
  8
Exterior View
370
           0
  6
Continuous
 62
           7
100
AcDbLine
 10
1.30471748538
 20
-14.080639975619
 30
0.0
 11
0.96877998538
 21
-0.123639975619
 31
0.0
1001
TCAD
1000
TCW_CUSTOM_DATA
1002
{
1000
#$AUX@_ToolInfo Properties
1070
           8
1000
Insert^JLine^JSingle@Line Single
1002
}
  0
ELLIPSE
  5
B5
100
AcDbEntity
  8
Exterior View
370
           0
  6
Continuous
 62
           7
100
AcDbEllipse
 10
11.327988830082
 20
-17.517374181702
 30
0.0
 11
15.959016834854683
 21
0.0
 31
0.0
210
0.0
220
0.0
230
1.0
 40
0.743987541825
 41
2.5128766272760772
 42
2.7362776711528309
  0
ELLIPSE
  5
B6
100
AcDbEntity
  8
Exterior View
370
           0
  6
Continuous
 62
           7
100
AcDbEllipse
 10
0.62581095369
 20
-14.354448398566
 30
0.0
 11
4.3132809683101065
 21
0.0
 31
0.0
210
0.0
220
0.0
230
1.0
 40
0.893022003762
 41
2.7362776703144824
 42
3.1415926535897931
  0
ELLIPSE
  5
B7
100
AcDbEntity
  8
Exterior View
370
           0
  6
Continuous
 62
           7
100
AcDbEllipse
 10
-0.022298755742
 20
-14.354448398566
 30
0.0
 11
0.0000000000000002
 21
-3.8518548131081349
 31
0.0
210
0.0
220
0.0
230
1.0
 40
0.951534114527
 41
4.7123889803846897
 42
5.8716756428097545
  0
ELLIPSE
  5
B8
100
AcDbEntity
  8
Exterior View
370
           0
  6
Continuous
 62
           7
100
AcDbEllipse
 10
1.147358726501
 20
-14.354448398566
 30
0.0
 11
0.0000000000000002
 21
-3.8518548131081345
 31
0.0
210
0.0
220
0.0
230
1.0
 40
0.951534114527
 41
0.4115096643697829
 42
1.5707963267948966
  0
ELLIPSE
  5
B9
100
AcDbEntity
  8
Exterior View
370
           0
  6
Continuous
 62
           7
100
AcDbEllipse
 10
0.563102102841
 20
-12.622529881171
 30
0.0
 11
0.0000000000000003
 21
-5.6867427662374874
 31
0.0
210
0.0
220
0.0
230
1.0
 40
0.951534114527
 41
-0.3888413403893722
 42
0.3888461240679622
  0
ELLIPSE
  5
BA
100
AcDbEntity
  8
Exterior View
370
           0
  6
Continuous
 62
           7
100
AcDbEllipse
 10
0.913896256228
 20
-14.156212400036
 30
0.0
 11
3.1982316903842278
 21
0.0
 31
0.0
210
0.0
220
0.0
230
1.0
 40
0.956601020787
 41
-0.785868811546769
 42
0.6705416310478953
1001
TCAD
1000
TCW_CUSTOM_DATA
1002
{
1000
#$AUX@_ToolInfo Properties
1070
           8
1000
Insert^JArc^JTriplePoint132@Arc TriplePoint132
1002
}
  0
ELLIPSE
  5
BB
100
AcDbEntity
  8
Exterior View
370
           0
  6
Continuous
 62
           7
100
AcDbEllipse
 10
4.146297744134
 20
-15.70596786009
 30
0.0
 11
1.3072280024350531
 21
0.0
 31
0.0
210
0.0
220
0.0
230
1.0
 40
0.956601020787
 41
2.5218907922244376
 42
3.6318376576669285
1001
TCAD
1000
TCW_CUSTOM_DATA
1002
{
1000
#$AUX@_ToolInfo Properties
1070
           8
1000
Insert^JArc^JTriplePoint132@Arc TriplePoint132
1002
}
  0
ELLIPSE
  5
BC
100
AcDbEntity
  8
Exterior View
370
           0
  6
Continuous
 62
           7
100
AcDbEllipse
 10
3.3600726853
 20
-12.300262009547
 30
0.0
 11
0.0760585887571291
 21
0.0
 31
0.0
210
0.0
220
0.0
230
1.0
 40
0.956601020787
 41
0.6705415038303019
 42
2.7811051997764049
1001
TCAD
1000
TCW_CUSTOM_DATA
1002
{
1000
#$AUX@_ToolInfo Properties
1070
           8
1000
Insert^JArc^JTanToEntities@Arc TanToEntities
1002
}
  0
ELLIPSE
  5
BD
100
AcDbEntity
  8
Exterior View
370
           0
  6
Continuous
 62
           7
100
AcDbEllipse
 10
3.093688620846
 20
-16.243367700436
 30
0.0
 11
0.1140878831356871
 21
0.0
 31
0.0
210
0.0
220
0.0
230
1.0
 40
0.956601020787
 41
-2.6513476861296308
 42
-0.7858688095839618
1001
TCAD
1000
TCW_CUSTOM_DATA
1002
{
1000
#$AUX@_ToolInfo Properties
1070
           8
1000
Insert^JArc^JTanToEntities@Arc TanToEntities
1002
}
  0
ELLIPSE
  5
BE
100
AcDbEntity
  8
Exterior View
370
           0
  6
Continuous
 62
           7
100
AcDbEllipse
 10
1.625978838812
 20
-13.755269078967
 30
0.0
 11
1.9387488340216628
 21
0.0
 31
0.0
210
0.0
220
0.0
230
1.0
 40
0.956601020787
 41
-0.7210903015485545
 42
0.4957932327708905
  0
ELLIPSE
  5
BF
100
AcDbEntity
  8
Exterior View
370
           0
  6
Continuous
 62
           7
100
AcDbEllipse
 10
3.995418695507
 20
-12.529367662311
 30
0.0
 11
0.755046553757143
 21
0.0
 31
0.0
210
0.0
220
0.0
230
1.0
 40
0.956601020787
 41
2.7811051997764382
 42
3.6373858853763679
  0
ELLIPSE
  5
C0
100
AcDbEntity
  8
Exterior View
370
           0
  6
Continuous
 62
           7
100
AcDbEllipse
 10
0.49924901707
 20
-14.354448398566
 30
0.0
 11
4.3132809683101119
 21
0.0
 31
0.0
210
0.0
220
0.0
230
1.0
 40
0.893022003762
 41
0.0
 42
0.4053149832753141
  0
ELLIPSE
  5
C1
100
AcDbEntity
  8
Exterior View
370
           0
  6
Continuous
 62
           7
100
AcDbEllipse
 10
0.211163714532
 20
-14.156212400036
 30
0.0
 11
3.1982316903842078
 21
0.0
 31
0.0
210
0.0
220
0.0
230
1.0
 40
0.956601020787
 41
2.4710510225419009
 42
3.9274614651365609
1001
TCAD
1000
TCW_CUSTOM_DATA
1002
{
1000
#$AUX@_ToolInfo Properties
1070
           8
1000
Insert^JArc^JTriplePoint132@Arc TriplePoint132
1002
}
  0
ELLIPSE
  5
C2
100
AcDbEntity
  8
Exterior View
370
           0
  6
Continuous
 62
           7
100
AcDbEllipse
 10
-3.021237773374
 20
-15.70596786009
 30
0.0
 11
1.3072280024350214
 21
0.0
 31
0.0
210
0.0
220
0.0
230
1.0
 40
0.956601020787
 41
-0.4902450040771278
 42
0.619701861365356
1001
TCAD
1000
TCW_CUSTOM_DATA
1002
{
1000
#$AUX@_ToolInfo Properties
1070
           8
1000
Insert^JArc^JTriplePoint132@Arc TriplePoint132
1002
}
  0
ELLIPSE
  5
C3
100
AcDbEntity
  8
Exterior View
370
           0
  6
Continuous
 62
           7
100
AcDbEllipse
 10
-2.23501271454
 20
-12.300262009547
 30
0.0
 11
0.0760585887571159
 21
0.0
 31
0.0
210
0.0
220
0.0
230
1.0
 40
0.956601020787
 41
0.360487453813466
 42
2.4710511497597434
1001
TCAD
1000
TCW_CUSTOM_DATA
1002
{
1000
#$AUX@_ToolInfo Properties
1070
           8
1000
Insert^JArc^JTanToEntities@Arc TanToEntities
1002
}
  0
ELLIPSE
  5
C4
100
AcDbEntity
  8
Exterior View
370
           0
  6
Continuous
 62
           7
100
AcDbEllipse
 10
-1.968628650086
 20
-16.243367700435
 30
0.0
 11
0.1140878831356569
 21
0.0
 31
0.0
210
0.0
220
0.0
230
1.0
 40
0.956601020787
 41
-2.3557238440058335
 42
-0.4902449674600733
1001
TCAD
1000
TCW_CUSTOM_DATA
1002
{
1000
#$AUX@_ToolInfo Properties
1070
           8
1000
Insert^JArc^JTanToEntities@Arc TanToEntities
1002
}
  0
ELLIPSE
  5
C5
100
AcDbEntity
  8
Exterior View
370
           0
  6
Continuous
 62
           7
100
AcDbEllipse
 10
-0.500918868052
 20
-13.755269078967
 30
0.0
 11
1.9387488340217014
 21
0.0
 31
0.0
210
0.0
220
0.0
230
1.0
 40
0.956601020787
 41
2.645799420818896
 42
3.8626829551383493
  0
ELLIPSE
  5
C6
100
AcDbEntity
  8
Exterior View
370
           0
  6
Continuous
 62
           7
100
AcDbEllipse
 10
-2.870358724747
 20
-12.529367662311
 30
0.0
 11
0.755046553757143
 21
0.0
 31
0.0
210
0.0
220
0.0
230
1.0
 40
0.956601020787
 41
-0.4957932317865816
 42
0.3604874538133693
  0
ELLIPSE
  5
C7
100
AcDbEntity
  8
Exterior View
370
           0
  6
Continuous
 62
           7
100
AcDbEllipse
 10
8.592736045599
 20
-7.698921083256
 30
0.0
 11
7.2804159947619098
 21
0.0
 31
0.0
210
0.0
220
0.0
230
1.0
 40
0.6622846562
 41
-3.1169684134589257
 42
-2.5128766272760781
  0
ELLIPSE
  5
C8
100
AcDbEntity
  8
Exterior View
370
           0
  6
Continuous
 62
           7
100
AcDbEllipse
 10
-10.202928859322
 20
-17.517374181702
 30
0.0
 11
15.959016834854676
 21
0.0
 31
0.0
210
0.0
220
0.0
230
1.0
 40
0.743987541825
 41
0.4053149824369621
 42
0.6287160263137156
  0
LINE
  5
C9
100
AcDbEntity
  8
Exterior View
370
           0
  6
Continuous
 62
           7
100
AcDbLine
 10
0.00002998538
 20
-23.061225125325
 30
0.0
 11
0.00002998538
 21
-22.936216138561
 31
0.0
1001
TCAD
1000
TCW_CUSTOM_DATA
1002
{
1000
#$AUX@_ToolInfo Properties
1070
           8
1000
Insert^JLine^JPerpendicular@Line Perpendicular
1002
}
  0
LINE
  5
CA
100
AcDbEntity
  8
Exterior View
370
           0
  6
Continuous
 62
           7
100
AcDbLine
 10
1.12502998538
 20
-23.061225125325
 30
0.0
 11
1.12502998538
 21
-22.936216138561
 31
0.0
1001
TCAD
1000
TCW_CUSTOM_DATA
1002
{
1000
#$AUX@_ToolInfo Properties
1070
           8
1000
Insert^JLine^JPerpendicular@Line Perpendicular
1002
}
  0
LINE
  5
CB
100
AcDbEntity
  8
Exterior View
370
           0
  6
Continuous
 62
           7
100
AcDbLine
 10
1.12502998538
 20
-22.936216138561
 30
0.0
 11
0.00002998538
 21
-22.936216138561
 31
0.0
1001
TCAD
1000
TCW_CUSTOM_DATA
1002
{
1000
#$AUX@_ToolInfo Properties
1070
           8
1000
Insert^JLine^JPerpendicular@Line Perpendicular
1002
}
  0
LINE
  5
CC
100
AcDbEntity
  8
Exterior View
370
           0
  6
Continuous
 62
           7
100
AcDbLine
 10
-0.189467220323
 20
-30.755225125325
 30
0.0
 11
0.00002998538
 21
-23.061225125325
 31
0.0
1001
TCAD
1000
TCW_CUSTOM_DATA
1002
{
1000
#$AUX@_ToolInfo Properties
1070
           8
1000
Insert^JLine^JSingle@Line Single
1002
}
  0
LINE
  5
CD
100
AcDbEntity
  8
Exterior View
370
           0
  6
Continuous
 62
           7
100
AcDbLine
 10
1.314527191083
 20
-30.755225125325
 30
0.0
 11
1.12502998538
 21
-23.061225125325
 31
0.0
1001
TCAD
1000
TCW_CUSTOM_DATA
1002
{
1000
#$AUX@_ToolInfo Properties
1070
           8
1000
Insert^JLine^JSingle@Line Single
1002
}
  0
ARC
  5
CE
100
AcDbEntity
  8
Exterior View
370
           0
  6
Continuous
 62
           7
100
AcDbCircle
 10
-2.04472894365
 20
-23.084778224272
 30
0.0
 40
2.050148719278
100
AcDbArc
 50
4.155526641438
 51
43.697218462947
1001
TCAD
1000
TCW_CUSTOM_DATA
1002
{
1000
#$AUX@_ToolInfo Properties
1070
           8
1000
Insert^JArc^JTriplePoint132@Arc TriplePoint132
1002
}
  0
ARC
  5
CF
100
AcDbEntity
  8
Exterior View
370
           0
  6
Continuous
 62
           7
100
AcDbCircle
 10
3.16978891441
 20
-23.084778224272
 30
0.0
 40
2.050148719278
100
AcDbArc
 50
136.302781537053
 51
175.844473358562
1001
TCAD
1000
TCW_CUSTOM_DATA
1002
{
1000
#$AUX@_ToolInfo Properties
1070
           8
1000
Insert^JArc^JTriplePoint132@Arc TriplePoint132
1002
}
  0
ELLIPSE
  5
D0
100
AcDbEntity
  8
Exterior View
370
           0
  6
Continuous
 62
           7
100
AcDbEllipse
 10
-19.922471157259
 20
-17.73585665878
 30
0.0
 11
19.783457622677084
 21
0.0
 31
0.0
210
0.0
220
0.0
230
1.0
 40
0.965925826289
 41
-0.2072745620501642
 42
-0.0700049122195689
1001
TCAD
1000
TCW_CUSTOM_DATA
1002
{
1000
#$AUX@_ToolInfo Properties
1070
           8
1000
Insert^JArc^JTriplePoint132@Arc TriplePoint132
1002
}
  0
ELLIPSE
  5
D1
100
AcDbEntity
  8
Exterior View
370
           0
  6
Continuous
 62
           7
100
AcDbEllipse
 10
21.047531128019
 20
-17.73585665878
 30
0.0
 11
19.783457622677076
 21
0.0
 31
0.0
210
0.0
220
0.0
230
1.0
 40
0.965925826289
 41
-3.0715877413702262
 42
-2.9343180915396316
1001
TCAD
1000
TCW_CUSTOM_DATA
1002
{
1000
#$AUX@_ToolInfo Properties
1070
           8
1000
Insert^JArc^JTriplePoint132@Arc TriplePoint132
1002
}
  0
ELLIPSE
  5
D2
100
AcDbEntity
  8
Exterior View
370
           0
  6
Continuous
 62
           7
100
AcDbEllipse
 10
0.56252998538
 20
-15.510661348957
 30
0.0
 11
3.762998305879091
 21
0.0
 31
0.0
210
0.0
220
0.0
230
1.0
 40
0.965925826289
 41
-1.7714492041147285
 42
-1.3701434494752267
1001
TCAD
1000
TCW_CUSTOM_DATA
1002
{
1000
#$AUX@_ToolInfo Properties
1070
           8
1000
Insert^JArc^JTriplePoint132@Arc TriplePoint132
1002
}
  0
ELLIPSE
  5
D3
100
AcDbEntity
  8
Exterior View
370
           0
  6
Continuous
 62
           7
100
AcDbEllipse
 10
-7.467676074839
 20
-30.636506232962
 30
0.0
 11
7.2804159947619098
 21
0.0
 31
0.0
210
0.0
220
0.0
230
1.0
 40
0.6622846562
 41
-0.6287160263137147
 42
-0.0246242401308669
  0
ELLIPSE
  5
D4
100
AcDbEntity
  8
Exterior View
370
           0
  6
Continuous
 62
           7
100
AcDbEllipse
 10
11.327988830082
 20
-40.454959331408
 30
0.0
 11
15.959016834854683
 21
0.0
 31
0.0
210
0.0
220
0.0
230
1.0
 40
0.743987541825
 41
2.5128766272760772
 42
2.7362776711528309
  0
ELLIPSE
  5
D5
100
AcDbEntity
  8
Exterior View
370
           0
  6
Continuous
 62
           7
100
AcDbEllipse
 10
0.62581095369
 20
-37.292033548272
 30
0.0
 11
4.3132809683101065
 21
0.0
 31
0.0
210
0.0
220
0.0
230
1.0
 40
0.893022003762
 41
2.7362776703144815
 42
3.1415926535897931
  0
ELLIPSE
  5
D6
100
AcDbEntity
  8
Exterior View
370
           0
  6
Continuous
 62
           7
100
AcDbEllipse
 10
-0.022298755742
 20
-37.292033548272
 30
0.0
 11
0.0000000000000002
 21
-3.8518548131081332
 31
0.0
210
0.0
220
0.0
230
1.0
 40
0.951534114527
 41
4.7123889803846897
 42
5.8716756428097545
  0
ELLIPSE
  5
D7
100
AcDbEntity
  8
Exterior View
370
           0
  6
Continuous
 62
           7
100
AcDbEllipse
 10
1.147358726501
 20
-37.292033548272
 30
0.0
 11
0.0000000000000002
 21
-3.851854813108134
 31
0.0
210
0.0
220
0.0
230
1.0
 40
0.951534114527
 41
0.4115096643697831
 42
1.5707963267948966
  0
ELLIPSE
  5
D8
100
AcDbEntity
  8
Exterior View
370
           0
  6
Continuous
 62
           7
100
AcDbEllipse
 10
0.913896256228
 20
-37.093797549742
 30
0.0
 11
3.1982316903842278
 21
0.0
 31
0.0
210
0.0
220
0.0
230
1.0
 40
0.956601020787
 41
-0.7858688115467691
 42
0.670541631047895
1001
TCAD
1000
TCW_CUSTOM_DATA
1002
{
1000
#$AUX@_ToolInfo Properties
1070
           8
1000
Insert^JArc^JTriplePoint132@Arc TriplePoint132
1002
}
  0
ELLIPSE
  5
D9
100
AcDbEntity
  8
Exterior View
370
           0
  6
Continuous
 62
           7
100
AcDbEllipse
 10
4.146297744134
 20
-38.643553009795
 30
0.0
 11
1.3072280024350531
 21
0.0
 31
0.0
210
0.0
220
0.0
230
1.0
 40
0.956601020787
 41
2.5218907922244371
 42
3.6318376576669276
1001
TCAD
1000
TCW_CUSTOM_DATA
1002
{
1000
#$AUX@_ToolInfo Properties
1070
           8
1000
Insert^JArc^JTriplePoint132@Arc TriplePoint132
1002
}
  0
ELLIPSE
  5
DA
100
AcDbEntity
  8
Exterior View
370
           0
  6
Continuous
 62
           7
100
AcDbEllipse
 10
3.3600726853
 20
-35.237847159253
 30
0.0
 11
0.0760585887571291
 21
0.0
 31
0.0
210
0.0
220
0.0
230
1.0
 40
0.956601020787
 41
0.6705415038303186
 42
2.7811051997764848
1001
TCAD
1000
TCW_CUSTOM_DATA
1002
{
1000
#$AUX@_ToolInfo Properties
1070
           8
1000
Insert^JArc^JTanToEntities@Arc TanToEntities
1002
}
  0
ELLIPSE
  5
DB
100
AcDbEntity
  8
Exterior View
370
           0
  6
Continuous
 62
           7
100
AcDbEllipse
 10
3.093688620846
 20
-39.180952850141
 30
0.0
 11
0.1140878831356871
 21
0.0
 31
0.0
210
0.0
220
0.0
230
1.0
 40
0.956601020787
 41
-2.6513476861296308
 42
-0.7858688095839618
1001
TCAD
1000
TCW_CUSTOM_DATA
1002
{
1000
#$AUX@_ToolInfo Properties
1070
           8
1000
Insert^JArc^JTanToEntities@Arc TanToEntities
1002
}
  0
ELLIPSE
  5
DC
100
AcDbEntity
  8
Exterior View
370
           0
  6
Continuous
 62
           7
100
AcDbEllipse
 10
1.625978838812
 20
-36.692854228673
 30
0.0
 11
1.9387488340216628
 21
0.0
 31
0.0
210
0.0
220
0.0
230
1.0
 40
0.956601020787
 41
-0.721090301548554
 42
0.4957932327708918
  0
ELLIPSE
  5
DD
100
AcDbEntity
  8
Exterior View
370
           0
  6
Continuous
 62
           7
100
AcDbEllipse
 10
3.995418695507
 20
-35.466952812016
 30
0.0
 11
0.755046553757143
 21
0.0
 31
0.0
210
0.0
220
0.0
230
1.0
 40
0.956601020787
 41
2.7811051997764382
 42
3.6373858853763679
  0
ELLIPSE
  5
DE
100
AcDbEntity
  8
Exterior View
370
           0
  6
Continuous
 62
           7
100
AcDbEllipse
 10
0.49924901707
 20
-37.292033548272
 30
0.0
 11
4.3132809683101119
 21
0.0
 31
0.0
210
0.0
220
0.0
230
1.0
 40
0.893022003762
 41
0.0
 42
0.4053149832753136
  0
ELLIPSE
  5
DF
100
AcDbEntity
  8
Exterior View
370
           0
  6
Continuous
 62
           7
100
AcDbEllipse
 10
0.211163714532
 20
-37.093797549742
 30
0.0
 11
3.1982316903842078
 21
0.0
 31
0.0
210
0.0
220
0.0
230
1.0
 40
0.956601020787
 41
2.4710510225419005
 42
3.9274614651365605
1001
TCAD
1000
TCW_CUSTOM_DATA
1002
{
1000
#$AUX@_ToolInfo Properties
1070
           8
1000
Insert^JArc^JTriplePoint132@Arc TriplePoint132
1002
}
  0
ELLIPSE
  5
E0
100
AcDbEntity
  8
Exterior View
370
           0
  6
Continuous
 62
           7
100
AcDbEllipse
 10
-3.021237773374
 20
-38.643553009795
 30
0.0
 11
1.3072280024350214
 21
0.0
 31
0.0
210
0.0
220
0.0
230
1.0
 40
0.956601020787
 41
-0.4902450040771268
 42
0.6197018613653562
1001
TCAD
1000
TCW_CUSTOM_DATA
1002
{
1000
#$AUX@_ToolInfo Properties
1070
           8
1000
Insert^JArc^JTriplePoint132@Arc TriplePoint132
1002
}
  0
ELLIPSE
  5
E1
100
AcDbEntity
  8
Exterior View
370
           0
  6
Continuous
 62
           7
100
AcDbEllipse
 10
-2.23501271454
 20
-35.237847159253
 30
0.0
 11
0.0760585887571159
 21
0.0
 31
0.0
210
0.0
220
0.0
230
1.0
 40
0.956601020787
 41
0.3604874538134161
 42
2.4710511497596821
1001
TCAD
1000
TCW_CUSTOM_DATA
1002
{
1000
#$AUX@_ToolInfo Properties
1070
           8
1000
Insert^JArc^JTanToEntities@Arc TanToEntities
1002
}
  0
ELLIPSE
  5
E2
100
AcDbEntity
  8
Exterior View
370
           0
  6
Continuous
 62
           7
100
AcDbEllipse
 10
-1.968628650086
 20
-39.180952850141
 30
0.0
 11
0.1140878831356569
 21
0.0
 31
0.0
210
0.0
220
0.0
230
1.0
 40
0.956601020787
 41
-2.3557238440058335
 42
-0.4902449674600733
1001
TCAD
1000
TCW_CUSTOM_DATA
1002
{
1000
#$AUX@_ToolInfo Properties
1070
           8
1000
Insert^JArc^JTanToEntities@Arc TanToEntities
1002
}
  0
ELLIPSE
  5
E3
100
AcDbEntity
  8
Exterior View
370
           0
  6
Continuous
 62
           7
100
AcDbEllipse
 10
-0.500918868052
 20
-36.692854228673
 30
0.0
 11
1.9387488340217014
 21
0.0
 31
0.0
210
0.0
220
0.0
230
1.0
 40
0.956601020787
 41
2.6457994208188973
 42
3.8626829551383497
  0
ELLIPSE
  5
E4
100
AcDbEntity
  8
Exterior View
370
           0
  6
Continuous
 62
           7
100
AcDbEllipse
 10
-2.870358724747
 20
-35.466952812016
 30
0.0
 11
0.755046553757143
 21
0.0
 31
0.0
210
0.0
220
0.0
230
1.0
 40
0.956601020787
 41
-0.4957932317865883
 42
0.3604874538133586
  0
ELLIPSE
  5
E5
100
AcDbEntity
  8
Exterior View
370
           0
  6
Continuous
 62
           7
100
AcDbEllipse
 10
8.592736045599
 20
-30.636506232962
 30
0.0
 11
7.2804159947619098
 21
0.0
 31
0.0
210
0.0
220
0.0
230
1.0
 40
0.6622846562
 41
-3.1169684134589248
 42
-2.5128766272760781
  0
ELLIPSE
  5
E6
100
AcDbEntity
  8
Exterior View
370
           0
  6
Continuous
 62
           7
100
AcDbEllipse
 10
-10.202928859322
 20
-40.454959331408
 30
0.0
 11
15.959016834854676
 21
0.0
 31
0.0
210
0.0
220
0.0
230
1.0
 40
0.743987541825
 41
0.4053149824369621
 42
0.6287160263137157
  0
LINE
  5
E7
100
AcDbEntity
  8
Exterior View
370
           0
  6
Continuous
 62
           7
100
AcDbLine
 10
10.00002998538
 20
-0.123639975619
 30
0.0
 11
10.00002998538
 21
0.001369011145
 31
0.0
1001
TCAD
1000
TCW_CUSTOM_DATA
1002
{
1000
#$AUX@_ToolInfo Properties
1070
           8
1000
Insert^JLine^JPerpendicular@Line Perpendicular
1002
}
  0
LINE
  5
E8
100
AcDbEntity
  8
Exterior View
370
           0
  6
Continuous
 62
           7
100
AcDbLine
 10
11.12502998538
 20
-0.123639975619
 30
0.0
 11
11.12502998538
 21
0.001369011145
 31
0.0
1001
TCAD
1000
TCW_CUSTOM_DATA
1002
{
1000
#$AUX@_ToolInfo Properties
1070
           8
1000
Insert^JLine^JPerpendicular@Line Perpendicular
1002
}
  0
LINE
  5
E9
100
AcDbEntity
  8
Exterior View
370
           0
  6
Continuous
 62
           7
100
AcDbLine
 10
9.810532779677
 20
-7.817639975619
 30
0.0
 11
10.00002998538
 21
-0.123639975619
 31
0.0
1001
TCAD
1000
TCW_CUSTOM_DATA
1002
{
1000
#$AUX@_ToolInfo Properties
1070
           8
1000
Insert^JLine^JSingle@Line Single
1002
}
  0
LINE
  5
EA
100
AcDbEntity
  8
Exterior View
370
           0
  6
Continuous
 62
           7
100
AcDbLine
 10
11.314527191083
 20
-7.817639975619
 30
0.0
 11
11.12502998538
 21
-0.123639975619
 31
0.0
1001
TCAD
1000
TCW_CUSTOM_DATA
1002
{
1000
#$AUX@_ToolInfo Properties
1070
           8
1000
Insert^JLine^JSingle@Line Single
1002
}
  0
POINT
  5
EB
100
AcDbEntity
  8
Exterior View
  6
Continuous
 62
           7
100
AcDbPoint
 10
9.857688004585
 20
1.676033630441
 30
0.0
1001
TCAD
1000
TCW_CUSTOM_DATA
1002
{
1000
#$AUX@_ToolInfo Properties
1070
           8
1000
Insert^JPoint^JCross@Point Cross
1002
}
1000
TC25ExternalObject
1002
{
1000
TCW30POINT
1000

1070
           0
1071
        0
1040
1.0
1040
0.0
1000
Continuous
1000
Exterior View
1070
          21
1071
        1
1071
      242
1010
9.857688004585
1020
1.676033630441
1030
0.0
1070
           3
1071
-2147483645
1070
           1
1000
#$AUX@_ToolInfo Properties
1070
           8
1000
Insert^JPoint^JCross@Point Cross
1000
$POINTSIZE
1070
           5
1040
0.25
1000
$POINTTYPE
1070
          18
1070
           3
1000
ExplodeScale
1070
           5
1040
1.0
1002
}
  0
ELLIPSE
  5
EC
100
AcDbEntity
  8
Exterior View
370
           0
  6
Continuous
 62
           7
 48
0.20000000298
100
AcDbEllipse
 10
9.857688004585
 20
1.676033630441
 30
0.0
 11
0.1250000000001051
 21
0.0
 31
0.0
210
0.0
220
0.0
230
1.0
 40
0.965925826289
 41
-0.1673902011416532
 42
6.1157951060379334
1001
TCAD
1000
TCW_CUSTOM_DATA
1002
{
1000
#$AUX@_ToolInfo Properties
1070
           8
1000
Insert^JCircle^JCenterAndPoint@Circle CenterAndPoint
1002
}
  0
LINE
  5
ED
100
AcDbEntity
  8
Exterior View
370
           0
  6
Continuous
 62
           7
 48
0.20000000298
100
AcDbLine
 10
9.655343371207
 20
2.149887161044
 30
0.0
 11
10.209981276013
 21
2.059362622225
 31
0.0
1001
TCAD
1000
TCW_CUSTOM_DATA
1002
{
1000
#$AUX@_ToolInfo Properties
1070
           8
1000
Insert^JLine^JSingle@Line Single
1002
}
  0
LINE
  5
EE
100
AcDbEntity
  8
Exterior View
370
           0
  6
Continuous
 62
           7
 48
0.20000000298
100
AcDbLine
 10
9.580369052182
 20
1.72129589985
 30
0.0
 11
9.655343371207
 21
2.149887161044
 31
0.0
1001
TCAD
1000
TCW_CUSTOM_DATA
1002
{
1000
#$AUX@_ToolInfo Properties
1070
           8
1000
Insert^JLine^JSingle@Line Single
1002
}
  0
ELLIPSE
  5
EF
100
AcDbEntity
  8
Exterior View
370
           0
  6
Continuous
 62
           7
 48
0.20000000298
100
AcDbEllipse
 10
10.194645343216
 20
1.428175261124
 30
0.0
 11
0.0500000000000384
 21
0.0
 31
0.0
210
0.0
220
0.0
230
1.0
 40
0.965925826289
 41
-1.9127194531359399
 42
4.3704658540436458
1001
TCAD
1000
TCW_CUSTOM_DATA
1002
{
1000
#$AUX@_ToolInfo Properties
1070
           8
1000
Insert^JCircle^JCenterAndPoint@Circle CenterAndPoint
1002
}
  0
ELLIPSE
  5
F0
100
AcDbEntity
  8
Exterior View
370
           0
  6
Continuous
 62
           7
 48
0.20000000298
100
AcDbEllipse
 10
10.194645343216
 20
1.428175261124
 30
0.0
 11
0.0843750000000664
 21
0.0
 31
0.0
210
0.0
220
0.0
230
1.0
 40
0.965925826289
 41
-1.7381865279364501
 42
0.674340308042913
1001
TCAD
1000
TCW_CUSTOM_DATA
1002
{
1000
#$AUX@_ToolInfo Properties
1070
           8
1000
Insert^JArc^JCenterAndPoint@Arc CenterAndPoint
1002
}
  0
LINE
  5
F1
100
AcDbEntity
  8
Exterior View
370
           0
  6
Continuous
 62
           7
 48
0.20000000298
100
AcDbLine
 10
10.180587658399
 20
1.34781439965
 30
0.0
 11
9.810829055194
 21
1.408164092195
 31
0.0
1001
TCAD
1000
TCW_CUSTOM_DATA
1002
{
1000
#$AUX@_ToolInfo Properties
1070
           8
1000
Insert^JLine^JSingle@Line Single
1002
}
  0
ELLIPSE
  5
F2
100
AcDbEntity
  8
Exterior View
370
           0
  6
Continuous
 62
           7
 48
0.20000000298
100
AcDbEllipse
 10
9.857688004585
 20
1.676033630441
 30
0.0
 11
0.2812500000001963
 21
0.0
 31
0.0
210
0.0
220
0.0
230
1.0
 40
0.965925826289
 41
2.9742024524480222
 42
6.1157949702817751
  0
LINE
  5
F3
100
AcDbEntity
  8
Exterior View
370
           0
  6
Continuous
 62
           7
 48
0.20000000298
100
AcDbLine
 10
10.209981276013
 20
2.059362622225
 30
0.0
 11
10.135006950627
 21
1.630771324667
 31
0.0
1001
TCAD
1000
TCW_CUSTOM_DATA
1002
{
1000
#$AUX@_ToolInfo Properties
1070
           8
1000
Insert^JLine^JPerpendicular@Line Perpendicular
1002
}
  0
LINE
  5
F4
100
AcDbEntity
  8
Exterior View
370
           0
  6
Continuous
 62
           7
 48
0.20000000298
100
AcDbLine
 10
10.26055226789
 20
1.479062392685
 30
0.0
 11
10.135006950627
 21
1.630771324667
 31
0.0
1001
TCAD
1000
TCW_CUSTOM_DATA
1002
{
1000
#$AUX@_ToolInfo Properties
1070
           8
1000
Insert^JLine^JTanFromArc@Line TanFromArc
1002
}
  0
ELLIPSE
  5
F5
100
AcDbEntity
  8
Exterior View
370
           0
  6
Continuous
 62
           7
100
AcDbEllipse
 10
9.106352642711
 20
2.091520697449
 30
0.0
 11
0.3437500000002364
 21
0.0
 31
0.0
210
0.0
220
0.0
230
1.0
 40
0.965925826289
 41
1.4034060325954563
 42
4.5449987792429374
  0
ELLIPSE
  5
F6
100
AcDbEntity
  8
Exterior View
370
           0
  6
Continuous
 62
           7
100
AcDbEllipse
 10
9.100720010119
 20
1.878148582212
 30
0.0
 11
0.1250000000001003
 21
0.0
 31
0.0
210
0.0
220
0.0
230
1.0
 40
0.965925826289
 41
-1.738186527936467
 42
-0.1673902011417455
1001
TCAD
1000
TCW_CUSTOM_DATA
1002
{
1000
#$AUX@_ToolInfo Properties
1070
           8
1000
Insert^JArc^JTanToTwoEntities@Arc TanToTwoEntities
1002
}
  0
ELLIPSE
  5
F7
100
AcDbEntity
  8
Exterior View
370
           0
  6
Continuous
 62
           7
100
AcDbEllipse
 10
9.173611709171
 20
2.294834530595
 30
0.0
 11
0.1250000000000771
 21
0.0
 31
0.0
210
0.0
220
0.0
230
1.0
 40
0.965925826289
 41
-0.1673902011418235
 42
1.4034061256530694
1001
TCAD
1000
TCW_CUSTOM_DATA
1002
{
1000
#$AUX@_ToolInfo Properties
1070
           8
1000
Insert^JArc^JTanToTwoEntities@Arc TanToTwoEntities
1002
}
  0
LINE
  5
F8
100
AcDbEntity
  8
Exterior View
370
           0
  6
Continuous
 62
           7
100
AcDbLine
 10
9.079893825974
 20
1.759095451559
 30
0.0
 11
9.049080593456
 21
1.764124595148
 31
0.0
  0
LINE
  5
F9
100
AcDbEntity
  8
Exterior View
370
           0
  6
Continuous
 62
           7
100
AcDbLine
 10
9.296864577216
 20
2.274717968187
 30
0.0
 11
9.223972877233
 21
1.858032014482
 31
0.0
1001
TCAD
1000
TCW_CUSTOM_DATA
1002
{
1000
#$AUX@_ToolInfo Properties
1070
           8
1000
Insert^JLine^JSingle@Line Single
1002
}
  0
LINE
  5
FA
100
AcDbEntity
  8
Exterior View
370
           0
  6
Continuous
 62
           7
100
AcDbLine
 10
9.612352085153
 20
1.886482374527
 30
0.0
 11
9.23959252765
 21
1.947321864112
 31
0.0
  0
LINE
  5
FB
100
AcDbEntity
  8
Exterior View
370
           0
  6
Continuous
 62
           7
100
AcDbLine
 10
9.651286701215
 20
2.125032210397
 30
0.0
 11
9.281244927109
 21
2.185428120331
 31
0.0
  0
POINT
  5
FC
100
AcDbEntity
  8
Exterior View
  6
Continuous
 62
           7
100
AcDbPoint
 10
10.03286528523
 20
2.862161562437
 30
0.0
1001
TCAD
1000
TCW_CUSTOM_DATA
1002
{
1000
#$AUX@_ToolInfo Properties
1070
           8
1000
Insert^JPoint^JCross@Point Cross
1002
}
1000
TC25ExternalObject
1002
{
1000
TCW30POINT
1000

1070
           0
1071
        0
1040
1.0
1040
0.0
1000
Continuous
1000
Exterior View
1070
          21
1071
        1
1071
      242
1010
10.03286528523
1020
2.862161562437
1030
0.0
1070
           3
1071
-2147483645
1070
           1
1000
#$AUX@_ToolInfo Properties
1070
           8
1000
Insert^JPoint^JCross@Point Cross
1000
$POINTSIZE
1070
           5
1040
0.25
1000
$POINTTYPE
1070
          18
1070
           3
1000
ExplodeScale
1070
           5
1040
1.0
1002
}
  0
ELLIPSE
  5
FD
100
AcDbEntity
  8
Exterior View
370
           0
  6
Continuous
 62
           7
 48
0.20000000298
100
AcDbEllipse
 10
10.03286528523
 20
2.862161562437
 30
0.0
 11
0.1250000000005221
 21
0.0
 31
0.0
210
0.0
220
0.0
230
1.0
 40
0.965925826289
 41
-0.1160710430554785
 42
6.1671142641241081
1001
TCAD
1000
TCW_CUSTOM_DATA
1002
{
1000
#$AUX@_ToolInfo Properties
1070
           8
1000
Insert^JCircle^JCenterAndPoint@Circle CenterAndPoint
1002
}
  0
LINE
  5
FE
100
AcDbEntity
  8
Exterior View
370
           0
  6
Continuous
 62
           7
 48
0.20000000298
100
AcDbLine
 10
9.80562249356
 20
3.325365323855
 30
0.0
 11
10.364337608765
 21
3.262441575923
 31
0.0
1001
TCAD
1000
TCW_CUSTOM_DATA
1002
{
1000
#$AUX@_ToolInfo Properties
1070
           8
1000
Insert^JLine^JSingle@Line Single
1002
}
  0
LINE
  5
FF
100
AcDbEntity
  8
Exterior View
370
           0
  6
Continuous
 62
           7
 48
0.20000000298
100
AcDbLine
 10
9.753507727628
 20
2.893623436403
 30
0.0
 11
9.80562249356
 21
3.325365323855
 31
0.0
1001
TCAD
1000
TCW_CUSTOM_DATA
1002
{
1000
#$AUX@_ToolInfo Properties
1070
           8
1000
Insert^JLine^JSingle@Line Single
1002
}
  0
ELLIPSE
  5
100
100
AcDbEntity
  8
Exterior View
370
           0
  6
Continuous
 62
           7
 48
0.20000000298
100
AcDbEllipse
 10
10.382541818605
 20
2.63132532139
 30
0.0
 11
0.0500000000002325
 21
0.0
 31
0.0
210
0.0
220
0.0
230
1.0
 40
0.965925826288
 41
-1.86140029504986
 42
4.4217850121297264
1001
TCAD
1000
TCW_CUSTOM_DATA
1002
{
1000
#$AUX@_ToolInfo Properties
1070
           8
1000
Insert^JCircle^JCenterAndPoint@Circle CenterAndPoint
1002
}
  0
ELLIPSE
  5
101
100
AcDbEntity
  8
Exterior View
370
           0
  6
Continuous
 62
           7
 48
0.20000000298
100
AcDbEllipse
 10
10.382541818605
 20
2.63132532139
 30
0.0
 11
0.0843750000003332
 21
0.0
 31
0.0
210
0.0
220
0.0
230
1.0
 40
0.965925826289
 41
-1.6868673698505141
 42
0.7256594661291616
1001
TCAD
1000
TCW_CUSTOM_DATA
1002
{
1000
#$AUX@_ToolInfo Properties
1070
           8
1000
Insert^JArc^JCenterAndPoint@Arc CenterAndPoint
1002
}
  0
LINE
  5
102
100
AcDbEntity
  8
Exterior View
370
           0
  6
Continuous
 62
           7
 48
0.20000000298
100
AcDbLine
 10
10.372770299992
 20
2.550373717492
 30
0.0
 11
10.000293556522
 21
2.59232288278
 31
0.0
1001
TCAD
1000
TCW_CUSTOM_DATA
1002
{
1000
#$AUX@_ToolInfo Properties
1070
           8
1000
Insert^JLine^JSingle@Line Single
1002
}
  0
ELLIPSE
  5
103
100
AcDbEntity
  8
Exterior View
370
           0
  6
Continuous
 62
           7
 48
0.20000000298
100
AcDbEllipse
 10
10.03286528523
 20
2.862161562437
 30
0.0
 11
0.2812500000011474
 21
0.0
 31
0.0
210
0.0
220
0.0
230
1.0
 40
0.965925826289
 41
3.0255216105342897
 42
6.1671141283680386
  0
LINE
  5
104
100
AcDbEntity
  8
Exterior View
370
           0
  6
Continuous
 62
           7
 48
0.20000000298
100
AcDbLine
 10
10.364337608765
 20
3.262441575923
 30
0.0
 11
10.312222838411
 21
2.830699651839
 31
0.0
1001
TCAD
1000
TCW_CUSTOM_DATA
1002
{
1000
#$AUX@_ToolInfo Properties
1070
           8
1000
Insert^JLine^JPerpendicular@Line Perpendicular
1002
}
  0
LINE
  5
105
100
AcDbEntity
  8
Exterior View
370
           0
  6
Continuous
 62
           7
 48
0.20000000298
100
AcDbLine
 10
10.445659552857
 20
2.685411063424
 30
0.0
 11
10.312222838411
 21
2.830699651839
 31
0.0
1001
TCAD
1000
TCW_CUSTOM_DATA
1002
{
1000
#$AUX@_ToolInfo Properties
1070
           8
1000
Insert^JLine^JTanFromArc@Line TanFromArc
1002
}
  0
ELLIPSE
  5
106
100
AcDbEntity
  8
Exterior View
370
           0
  6
Continuous
 62
           7
100
AcDbEllipse
 10
9.260454152943
 20
3.239873900682
 30
0.0
 11
0.343750000001391
 21
0.0
 31
0.0
210
0.0
220
0.0
230
1.0
 40
0.965925826289
 41
1.4547251906817202
 42
4.5963179373291929
  0
ELLIPSE
  5
107
100
AcDbEntity
  8
Exterior View
370
           0
  6
Continuous
 62
           7
100
AcDbEllipse
 10
9.266160314793
 20
3.026503608285
 30
0.0
 11
0.1250000000004939
 21
0.0
 31
0.0
210
0.0
220
0.0
230
1.0
 40
0.965925826289
 41
-1.6868673698504801
 42
-0.1160710430555519
1001
TCAD
1000
TCW_CUSTOM_DATA
1002
{
1000
#$AUX@_ToolInfo Properties
1070
           8
1000
Insert^JArc^JTanToTwoEntities@Arc TanToTwoEntities
1002
}
  0
ELLIPSE
  5
108
100
AcDbEntity
  8
Exterior View
370
           0
  6
Continuous
 62
           7
100
AcDbEllipse
 10
9.316827448338
 20
3.44625266553
 30
0.0
 11
0.1250000000005221
 21
0.0
 31
0.0
210
0.0
220
0.0
230
1.0
 40
0.965925826289
 41
-0.1160710430554819
 42
1.4547252837393536
1001
TCAD
1000
TCW_CUSTOM_DATA
1002
{
1000
#$AUX@_ToolInfo Properties
1070
           8
1000
Insert^JArc^JTanToTwoEntities@Arc TanToTwoEntities
1002
}
  0
LINE
  5
109
100
AcDbEntity
  8
Exterior View
370
           0
  6
Continuous
 62
           7
100
AcDbLine
 10
9.251684006621
 20
2.906575304447
 30
0.0
 11
9.2206442623
 21
2.910071069989
 31
0.0
  0
LINE
  5
10A
100
AcDbEntity
  8
Exterior View
370
           0
  6
Continuous
 62
           7
100
AcDbLine
 10
9.440986363044
 20
3.432269612221
 30
0.0
 11
9.390319228851
 21
3.012520549615
 31
0.0
1001
TCAD
1000
TCW_CUSTOM_DATA
1002
{
1000
#$AUX@_ToolInfo Properties
1070
           8
1000
Insert^JLine^JSingle@Line Single
1002
}
  0
LINE
  5
10B
100
AcDbEntity
  8
Exterior View
370
           0
  6
Continuous
 62
           7
100
AcDbLine
 10
9.772320626101
 20
3.060667693675
 30
0.0
 11
9.401176472185
 21
3.102466779742
 31
0.0
  0
LINE
  5
10C
100
AcDbEntity
  8
Exterior View
370
           0
  6
Continuous
 62
           7
100
AcDbLine
 10
9.802805408318
 20
3.300351745398
 30
0.0
 11
9.430129119926
 21
3.342323383882
 31
0.0
  0
POINT
  5
10D
100
AcDbEntity
  8
Exterior View
  6
Continuous
 62
           7
100
AcDbPoint
 10
11.267371966175
 20
1.676033630441
 30
0.0
1001
TCAD
1000
TCW_CUSTOM_DATA
1002
{
1000
#$AUX@_ToolInfo Properties
1070
           8
1000
Insert^JPoint^JCross@Point Cross
1002
}
1000
TC25ExternalObject
1002
{
1000
TCW30POINT
1000

1070
           0
1071
        0
1040
1.0
1040
0.0
1000
Continuous
1000
Exterior View
1070
          21
1071
        1
1071
      242
1010
11.267371966175
1020
1.676033630441
1030
0.0
1070
           3
1071
-2147483645
1070
           1
1000
#$AUX@_ToolInfo Properties
1070
           8
1000
Insert^JPoint^JCross@Point Cross
1000
$POINTSIZE
1070
           5
1040
0.25
1000
$POINTTYPE
1070
          18
1070
           3
1000
ExplodeScale
1070
           5
1040
1.0
1002
}
  0
ELLIPSE
  5
10E
100
AcDbEntity
  8
Exterior View
370
           0
  6
Continuous
 62
           7
 48
0.20000000298
100
AcDbEllipse
 10
11.267371966175
 20
1.676033630441
 30
0.0
 11
0.1250000000001074
 21
0.0
 31
0.0
210
0.0
220
0.0
230
1.0
 40
0.965925826289
 41
-2.9742024524481416
 42
3.3089828547314446
1001
TCAD
1000
TCW_CUSTOM_DATA
1002
{
1000
#$AUX@_ToolInfo Properties
1070
           8
1000
Insert^JCircle^JCenterAndPoint@Circle CenterAndPoint
1002
}
  0
LINE
  5
10F
100
AcDbEntity
  8
Exterior View
370
           0
  6
Continuous
 62
           7
 48
0.20000000298
100
AcDbLine
 10
11.469716599553
 20
2.149887161044
 30
0.0
 11
10.915078694746
 21
2.059362622225
 31
0.0
1001
TCAD
1000
TCW_CUSTOM_DATA
1002
{
1000
#$AUX@_ToolInfo Properties
1070
           8
1000
Insert^JLine^JSingle@Line Single
1002
}
  0
LINE
  5
110
100
AcDbEntity
  8
Exterior View
370
           0
  6
Continuous
 62
           7
 48
0.20000000298
100
AcDbLine
 10
11.544690918578
 20
1.72129589985
 30
0.0
 11
11.469716599553
 21
2.149887161044
 31
0.0
1001
TCAD
1000
TCW_CUSTOM_DATA
1002
{
1000
#$AUX@_ToolInfo Properties
1070
           8
1000
Insert^JLine^JSingle@Line Single
1002
}
  0
ELLIPSE
  5
111
100
AcDbEntity
  8
Exterior View
370
           0
  6
Continuous
 62
           7
 48
0.20000000298
100
AcDbEllipse
 10
10.930414627544
 20
1.428175261124
 30
0.0
 11
0.0500000000000384
 21
0.0
 31
0.0
210
0.0
220
0.0
230
1.0
 40
0.965925826289
 41
-1.2288732004538532
 42
5.0543121067257335
1001
TCAD
1000
TCW_CUSTOM_DATA
1002
{
1000
#$AUX@_ToolInfo Properties
1070
           8
1000
Insert^JCircle^JCenterAndPoint@Circle CenterAndPoint
1002
}
  0
ELLIPSE
  5
112
100
AcDbEntity
  8
Exterior View
370
           0
  6
Continuous
 62
           7
 48
0.20000000298
100
AcDbEllipse
 10
10.930414627544
 20
1.428175261124
 30
0.0
 11
0.0843750000000775
 21
0.0
 31
0.0
210
0.0
220
0.0
230
1.0
 40
0.965925826289
 41
2.4672523455469006
 42
4.8797791815263993
1001
TCAD
1000
TCW_CUSTOM_DATA
1002
{
1000
#$AUX@_ToolInfo Properties
1070
           8
1000
Insert^JArc^JCenterAndPoint@Arc CenterAndPoint
1002
}
  0
LINE
  5
113
100
AcDbEntity
  8
Exterior View
370
           0
  6
Continuous
 62
           7
 48
0.20000000298
100
AcDbLine
 10
10.944472312361
 20
1.34781439965
 30
0.0
 11
11.314230915565
 21
1.408164092195
 31
0.0
1001
TCAD
1000
TCW_CUSTOM_DATA
1002
{
1000
#$AUX@_ToolInfo Properties
1070
           8
1000
Insert^JLine^JSingle@Line Single
1002
}
  0
ELLIPSE
  5
114
100
AcDbEntity
  8
Exterior View
370
           0
  6
Continuous
 62
           7
 48
0.20000000298
100
AcDbEllipse
 10
11.267371966175
 20
1.676033630441
 30
0.0
 11
0.281250000000194
 21
0.0
 31
0.0
210
0.0
220
0.0
230
1.0
 40
0.965925826289
 41
-2.9742023166919567
 42
0.1673902011417796
  0
LINE
  5
115
100
AcDbEntity
  8
Exterior View
370
           0
  6
Continuous
 62
           7
 48
0.20000000298
100
AcDbLine
 10
10.915078694746
 20
2.059362622225
 30
0.0
 11
10.990053020133
 21
1.630771324667
 31
0.0
1001
TCAD
1000
TCW_CUSTOM_DATA
1002
{
1000
#$AUX@_ToolInfo Properties
1070
           8
1000
Insert^JLine^JPerpendicular@Line Perpendicular
1002
}
  0
LINE
  5
116
100
AcDbEntity
  8
Exterior View
370
           0
  6
Continuous
 62
           7
 48
0.20000000298
100
AcDbLine
 10
10.86450770287
 20
1.479062392685
 30
0.0
 11
10.990053020133
 21
1.630771324667
 31
0.0
1001
TCAD
1000
TCW_CUSTOM_DATA
1002
{
1000
#$AUX@_ToolInfo Properties
1070
           8
1000
Insert^JLine^JTanFromArc@Line TanFromArc
1002
}
  0
ELLIPSE
  5
117
100
AcDbEntity
  8
Exterior View
370
           0
  6
Continuous
 62
           7
100
AcDbEllipse
 10
12.018707328049
 20
2.091520697449
 30
0.0
 11
0.3437500000002504
 21
0.0
 31
0.0
210
0.0
220
0.0
230
1.0
 40
0.965925826289
 41
-1.4034061256531505
 42
1.7381866209943753
  0
ELLIPSE
  5
118
100
AcDbEntity
  8
Exterior View
370
           0
  6
Continuous
 62
           7
100
AcDbEllipse
 10
12.024339960641
 20
1.878148582212
 30
0.0
 11
0.1250000000000887
 21
0.0
 31
0.0
210
0.0
220
0.0
230
1.0
 40
0.965925826289
 41
-2.974202452448016
 42
-1.4034061256531982
1001
TCAD
1000
TCW_CUSTOM_DATA
1002
{
1000
#$AUX@_ToolInfo Properties
1070
           8
1000
Insert^JArc^JTanToTwoEntities@Arc TanToTwoEntities
1002
}
  0
ELLIPSE
  5
119
100
AcDbEntity
  8
Exterior View
370
           0
  6
Continuous
 62
           7
100
AcDbEllipse
 10
11.951448261589
 20
2.294834530595
 30
0.0
 11
0.1250000000000771
 21
0.0
 31
0.0
210
0.0
220
0.0
230
1.0
 40
0.965925826289
 41
1.7381865279367237
 42
3.3089828547316165
1001
TCAD
1000
TCW_CUSTOM_DATA
1002
{
1000
#$AUX@_ToolInfo Properties
1070
           8
1000
Insert^JArc^JTanToTwoEntities@Arc TanToTwoEntities
1002
}
  0
LINE
  5
11A
100
AcDbEntity
  8
Exterior View
370
           0
  6
Continuous
 62
           7
100
AcDbLine
 10
11.828195393544
 20
2.274717968187
 30
0.0
 11
11.901087093527
 21
1.858032014482
 31
0.0
1001
TCAD
1000
TCW_CUSTOM_DATA
1002
{
1000
#$AUX@_ToolInfo Properties
1070
           8
1000
Insert^JLine^JSingle@Line Single
1002
}
  0
LINE
  5
11B
100
AcDbEntity
  8
Exterior View
370
           0
  6
Continuous
 62
           7
100
AcDbLine
 10
11.51759989572
 20
1.8872808179
 30
0.0
 11
11.88546744311
 21
1.947321864112
 31
0.0
  0
LINE
  5
11C
100
AcDbEntity
  8
Exterior View
370
           0
  6
Continuous
 62
           7
100
AcDbLine
 10
11.842795874858
 20
2.185261777958
 30
0.0
 11
11.473773269545
 21
2.125032210397
 31
0.0
  0
POINT
  5
11D
100
AcDbEntity
  8
Exterior View
  6
Continuous
 62
           7
100
AcDbPoint
 10
11.09219468553
 20
2.862161562437
 30
0.0
1001
TCAD
1000
TCW_CUSTOM_DATA
1002
{
1000
#$AUX@_ToolInfo Properties
1070
           8
1000
Insert^JPoint^JCross@Point Cross
1002
}
1000
TC25ExternalObject
1002
{
1000
TCW30POINT
1000

1070
           0
1071
        0
1040
1.0
1040
0.0
1000
Continuous
1000
Exterior View
1070
          21
1071
        1
1071
      242
1010
11.09219468553
1020
2.862161562437
1030
0.0
1070
           3
1071
-2147483645
1070
           1
1000
#$AUX@_ToolInfo Properties
1070
           8
1000
Insert^JPoint^JCross@Point Cross
1000
$POINTSIZE
1070
           5
1040
0.25
1000
$POINTTYPE
1070
          18
1070
           3
1000
ExplodeScale
1070
           5
1040
1.0
1002
}
  0
ELLIPSE
  5
11E
100
AcDbEntity
  8
Exterior View
370
           0
  6
Continuous
 62
           7
 48
0.20000000298
100
AcDbEllipse
 10
11.09219468553
 20
2.862161562437
 30
0.0
 11
0.1250000000005221
 21
0.0
 31
0.0
210
0.0
220
0.0
230
1.0
 40
0.965925826289
 41
-3.025521610534347
 42
3.2576636966452392
1001
TCAD
1000
TCW_CUSTOM_DATA
1002
{
1000
#$AUX@_ToolInfo Properties
1070
           8
1000
Insert^JCircle^JCenterAndPoint@Circle CenterAndPoint
1002
}
  0
LINE
  5
11F
100
AcDbEntity
  8
Exterior View
370
           0
  6
Continuous
 62
           7
 48
0.20000000298
100
AcDbLine
 10
11.3194374772
 20
3.325365323855
 30
0.0
 11
10.760722361995
 21
3.262441575923
 31
0.0
1001
TCAD
1000
TCW_CUSTOM_DATA
1002
{
1000
#$AUX@_ToolInfo Properties
1070
           8
1000
Insert^JLine^JSingle@Line Single
1002
}
  0
LINE
  5
120
100
AcDbEntity
  8
Exterior View
370
           0
  6
Continuous
 62
           7
 48
0.20000000298
100
AcDbLine
 10
11.371552243132
 20
2.893623436403
 30
0.0
 11
11.3194374772
 21
3.325365323855
 31
0.0
1001
TCAD
1000
TCW_CUSTOM_DATA
1002
{
1000
#$AUX@_ToolInfo Properties
1070
           8
1000
Insert^JLine^JSingle@Line Single
1002
}
  0
ELLIPSE
  5
121
100
AcDbEntity
  8
Exterior View
370
           0
  6
Continuous
 62
           7
 48
0.20000000298
100
AcDbEllipse
 10
10.742518152155
 20
2.63132532139
 30
0.0
 11
0.0500000000002325
 21
0.0
 31
0.0
210
0.0
220
0.0
230
1.0
 40
0.965925826289
 41
-1.2801923585399484
 42
5.0029929486396378
1001
TCAD
1000
TCW_CUSTOM_DATA
1002
{
1000
#$AUX@_ToolInfo Properties
1070
           8
1000
Insert^JCircle^JCenterAndPoint@Circle CenterAndPoint
1002
}
  0
ELLIPSE
  5
122
100
AcDbEntity
  8
Exterior View
370
           0
  6
Continuous
 62
           7
 48
0.20000000298
100
AcDbEllipse
 10
10.742518152155
 20
2.63132532139
 30
0.0
 11
0.0843750000003533
 21
0.0
 31
0.0
210
0.0
220
0.0
230
1.0
 40
0.965925826289
 41
2.4159331874606256
 42
4.828460023440285
1001
TCAD
1000
TCW_CUSTOM_DATA
1002
{
1000
#$AUX@_ToolInfo Properties
1070
           8
1000
Insert^JArc^JCenterAndPoint@Arc CenterAndPoint
1002
}
  0
LINE
  5
123
100
AcDbEntity
  8
Exterior View
370
           0
  6
Continuous
 62
           7
 48
0.20000000298
100
AcDbLine
 10
10.752289670767
 20
2.550373717492
 30
0.0
 11
11.124766414237
 21
2.59232288278
 31
0.0
1001
TCAD
1000
TCW_CUSTOM_DATA
1002
{
1000
#$AUX@_ToolInfo Properties
1070
           8
1000
Insert^JLine^JSingle@Line Single
1002
}
  0
ELLIPSE
  5
124
100
AcDbEntity
  8
Exterior View
370
           0
  6
Continuous
 62
           7
 48
0.20000000298
100
AcDbEllipse
 10
11.09219468553
 20
2.862161562437
 30
0.0
 11
0.2812500000011333
 21
0.0
 31
0.0
210
0.0
220
0.0
230
1.0
 40
0.965925826289
 41
-3.0255214747782038
 42
0.1160710430555205
  0
LINE
  5
125
100
AcDbEntity
  8
Exterior View
370
           0
  6
Continuous
 62
           7
 48
0.20000000298
100
AcDbLine
 10
10.760722361995
 20
3.262441575923
 30
0.0
 11
10.812837132349
 21
2.830699651839
 31
0.0
1001
TCAD
1000
TCW_CUSTOM_DATA
1002
{
1000
#$AUX@_ToolInfo Properties
1070
           8
1000
Insert^JLine^JPerpendicular@Line Perpendicular
1002
}
  0
LINE
  5
126
100
AcDbEntity
  8
Exterior View
370
           0
  6
Continuous
 62
           7
 48
0.20000000298
100
AcDbLine
 10
10.679400417903
 20
2.685411063424
 30
0.0
 11
10.812837132349
 21
2.830699651839
 31
0.0
1001
TCAD
1000
TCW_CUSTOM_DATA
1002
{
1000
#$AUX@_ToolInfo Properties
1070
           8
1000
Insert^JLine^JTanFromArc@Line TanFromArc
1002
}
  0
ELLIPSE
  5
127
100
AcDbEntity
  8
Exterior View
370
           0
  6
Continuous
 62
           7
100
AcDbEllipse
 10
11.864605817817
 20
3.239873900682
 30
0.0
 11
0.3437500000013943
 21
0.0
 31
0.0
210
0.0
220
0.0
230
1.0
 40
0.965925826289
 41
-1.4547252837393185
 42
1.6868674629080793
  0
ELLIPSE
  5
128
100
AcDbEntity
  8
Exterior View
370
           0
  6
Continuous
 62
           7
100
AcDbEllipse
 10
11.858899655967
 20
3.026503608285
 30
0.0
 11
0.1250000000004955
 21
0.0
 31
0.0
210
0.0
220
0.0
230
1.0
 40
0.965925826289
 41
-3.0255216105341889
 42
-1.4547252837393141
1001
TCAD
1000
TCW_CUSTOM_DATA
1002
{
1000
#$AUX@_ToolInfo Properties
1070
           8
1000
Insert^JArc^JTanToTwoEntities@Arc TanToTwoEntities
1002
}
  0
ELLIPSE
  5
129
100
AcDbEntity
  8
Exterior View
370
           0
  6
Continuous
 62
           7
100
AcDbEllipse
 10
11.808232522422
 20
3.44625266553
 30
0.0
 11
0.1250000000005238
 21
0.0
 31
0.0
210
0.0
220
0.0
230
1.0
 40
0.965925826289
 41
1.6868673698505514
 42
3.2576636966453054
1001
TCAD
1000
TCW_CUSTOM_DATA
1002
{
1000
#$AUX@_ToolInfo Properties
1070
           8
1000
Insert^JArc^JTanToTwoEntities@Arc TanToTwoEntities
1002
}
  0
LINE
  5
12A
100
AcDbEntity
  8
Exterior View
370
           0
  6
Continuous
 62
           7
100
AcDbLine
 10
11.873375964139
 20
2.906575304447
 30
0.0
 11
11.90441570846
 21
2.910071069989
 31
0.0
  0
LINE
  5
12B
100
AcDbEntity
  8
Exterior View
370
           0
  6
Continuous
 62
           7
100
AcDbLine
 10
11.684073607716
 20
3.432269612221
 30
0.0
 11
11.734740741909
 21
3.012520549615
 31
0.0
1001
TCAD
1000
TCW_CUSTOM_DATA
1002
{
1000
#$AUX@_ToolInfo Properties
1070
           8
1000
Insert^JLine^JSingle@Line Single
1002
}
  0
LINE
  5
12C
100
AcDbEntity
  8
Exterior View
370
           0
  6
Continuous
 62
           7
100
AcDbLine
 10
11.352739344659
 20
3.060667693675
 30
0.0
 11
11.723883498575
 21
3.102466779742
 31
0.0
  0
LINE
  5
12D
100
AcDbEntity
  8
Exterior View
370
           0
  6
Continuous
 62
           7
100
AcDbLine
 10
11.322254562442
 20
3.300351745398
 30
0.0
 11
11.694930850834
 21
3.342323383882
 31
0.0
  0
LINE
  5
12E
100
AcDbEntity
  8
Exterior View
370
           0
  6
Continuous
 62
           7
100
AcDbLine
 10
9.300264075359
 20
3.569676727795
 30
0.0
 11
9.331303772208
 21
3.5661809676
 31
0.0
1001
TCAD
1000
TCW_CUSTOM_DATA
1002
{
1000
#$AUX@_ToolInfo Properties
1070
           8
1000
Insert^JLine^JSingle@Line Single
1002
}
  0
LINE
  5
12F
100
AcDbEntity
  8
Exterior View
370
           0
  6
Continuous
 62
           7
100
AcDbLine
 10
9.1944379089
 20
2.413887658704
 30
0.0
 11
9.163624723508
 21
2.418916794601
 31
0.0
1001
TCAD
1000
TCW_CUSTOM_DATA
1002
{
1000
#$AUX@_ToolInfo Properties
1070
           8
1000
Insert^JLine^JSingle@Line Single
1002
}
  0
LINE
  5
130
100
AcDbEntity
  8
Exterior View
370
           0
  6
Continuous
 62
           7
100
AcDbLine
 10
11.93062206186
 20
2.413887658704
 30
0.0
 11
11.961435247252
 21
2.418916794601
 31
0.0
1001
TCAD
1000
TCW_CUSTOM_DATA
1002
{
1000
#$AUX@_ToolInfo Properties
1070
           8
1000
Insert^JLine^JSingle@Line Single
1002
}
  0
LINE
  5
131
100
AcDbEntity
  8
Exterior View
370
           0
  6
Continuous
 62
           7
100
AcDbLine
 10
12.04516616037
 20
1.759095454103
 30
0.0
 11
12.075979377304
 21
1.764124595148
 31
0.0
1001
TCAD
1000
TCW_CUSTOM_DATA
1002
{
1000
#$AUX@_ToolInfo Properties
1070
           8
1000
Insert^JLine^JSingle@Line Single
1002
}
  0
LINE
  5
132
100
AcDbEntity
  8
Exterior View
370
           0
  6
Continuous
 62
           7
100
AcDbLine
 10
11.793756198552
 20
3.5661809676
 30
0.0
 11
11.824795895401
 21
3.569676727796
 31
0.0
1001
TCAD
1000
TCW_CUSTOM_DATA
1002
{
1000
#$AUX@_ToolInfo Properties
1070
           8
1000
Insert^JLine^JSingle@Line Single
1002
}
  0
ARC
  5
133
100
AcDbEntity
  8
Exterior View
370
           0
  6
Continuous
 62
           7
100
AcDbCircle
 10
7.95527105635
 20
-0.147193074566
 30
0.0
 40
2.050148719278
100
AcDbArc
 50
4.155526641438
 51
43.697218462947
1001
TCAD
1000
TCW_CUSTOM_DATA
1002
{
1000
#$AUX@_ToolInfo Properties
1070
           8
1000
Insert^JArc^JTriplePoint132@Arc TriplePoint132
1002
}
  0
ARC
  5
134
100
AcDbEntity
  8
Exterior View
370
           0
  6
Continuous
 62
           7
100
AcDbCircle
 10
13.16978891441
 20
-0.147193074566
 30
0.0
 40
2.050148719278
100
AcDbArc
 50
136.302781537053
 51
175.844473358562
1001
TCAD
1000
TCW_CUSTOM_DATA
1002
{
1000
#$AUX@_ToolInfo Properties
1070
           8
1000
Insert^JArc^JTriplePoint132@Arc TriplePoint132
1002
}
  0
ELLIPSE
  5
135
100
AcDbEntity
  8
Exterior View
370
           0
  6
Continuous
 62
           7
100
AcDbEllipse
 10
-9.922471157259
 20
5.201728490926
 30
0.0
 11
19.783457622677084
 21
0.0
 31
0.0
210
0.0
220
0.0
230
1.0
 40
0.965925826289
 41
-0.2072745620501642
 42
-0.070004912219569
1001
TCAD
1000
TCW_CUSTOM_DATA
1002
{
1000
#$AUX@_ToolInfo Properties
1070
           8
1000
Insert^JArc^JTriplePoint132@Arc TriplePoint132
1002
}
  0
ELLIPSE
  5
136
100
AcDbEntity
  8
Exterior View
370
           0
  6
Continuous
 62
           7
100
AcDbEllipse
 10
31.047531128019
 20
5.201728490926
 30
0.0
 11
19.783457622677076
 21
0.0
 31
0.0
210
0.0
220
0.0
230
1.0
 40
0.965925826289
 41
-3.0715877413702262
 42
-2.9343180915396316
1001
TCAD
1000
TCW_CUSTOM_DATA
1002
{
1000
#$AUX@_ToolInfo Properties
1070
           8
1000
Insert^JArc^JTriplePoint132@Arc TriplePoint132
1002
}
  0
ELLIPSE
  5
137
100
AcDbEntity
  8
Exterior View
370
           0
  6
Continuous
 62
           7
100
AcDbEllipse
 10
10.56252998538
 20
7.426923800749
 30
0.0
 11
3.762998305879091
 21
0.0
 31
0.0
210
0.0
220
0.0
230
1.0
 40
0.965925826289
 41
-1.7714492041147285
 42
-1.3701434494752267
1001
TCAD
1000
TCW_CUSTOM_DATA
1002
{
1000
#$AUX@_ToolInfo Properties
1070
           8
1000
Insert^JArc^JTriplePoint132@Arc TriplePoint132
1002
}
  0
ELLIPSE
  5
138
100
AcDbEntity
  8
Exterior View
370
           0
  6
Continuous
 62
           7
100
AcDbEllipse
 10
2.532323925161
 20
-7.698921083256
 30
0.0
 11
7.2804159947619098
 21
0.0
 31
0.0
210
0.0
220
0.0
230
1.0
 40
0.6622846562
 41
-0.6287160263137153
 42
-0.0246242401308676
  0
ELLIPSE
  5
139
100
AcDbEntity
  8
Exterior View
370
           0
  6
Continuous
 62
           7
100
AcDbEllipse
 10
21.327988830082
 20
-17.517374181702
 30
0.0
 11
15.959016834854683
 21
0.0
 31
0.0
210
0.0
220
0.0
230
1.0
 40
0.743987541825
 41
2.5128766272760772
 42
2.7362776711528309
  0
ELLIPSE
  5
13A
100
AcDbEntity
  8
Exterior View
370
           0
  6
Continuous
 62
           7
100
AcDbEllipse
 10
10.62581095369
 20
-14.354448398566
 30
0.0
 11
4.3132809683101065
 21
0.0
 31
0.0
210
0.0
220
0.0
230
1.0
 40
0.893022003762
 41
2.7362776703144824
 42
3.1415926535897931
  0
ELLIPSE
  5
13B
100
AcDbEntity
  8
Exterior View
370
           0
  6
Continuous
 62
           7
100
AcDbEllipse
 10
9.977701244258
 20
-14.354448398566
 30
0.0
 11
0.0000000000000002
 21
-3.8518548131081349
 31
0.0
210
0.0
220
0.0
230
1.0
 40
0.951534114527
 41
4.7123889803846897
 42
5.8716756428097545
  0
ELLIPSE
  5
13C
100
AcDbEntity
  8
Exterior View
370
           0
  6
Continuous
 62
           7
100
AcDbEllipse
 10
11.147358726501
 20
-14.354448398566
 30
0.0
 11
0.0000000000000002
 21
-3.8518548131081345
 31
0.0
210
0.0
220
0.0
230
1.0
 40
0.951534114527
 41
0.4115096643697829
 42
1.5707963267948966
  0
ELLIPSE
  5
13D
100
AcDbEntity
  8
Exterior View
370
           0
  6
Continuous
 62
           7
100
AcDbEllipse
 10
10.563102102841
 20
-12.622529881171
 30
0.0
 11
0.0000000000000003
 21
-5.6867427662374874
 31
0.0
210
0.0
220
0.0
230
1.0
 40
0.951534114527
 41
-0.3888413403893722
 42
0.3888461240679622
  0
ELLIPSE
  5
13E
100
AcDbEntity
  8
Exterior View
370
           0
  6
Continuous
 62
           7
100
AcDbEllipse
 10
10.49924901707
 20
-14.354448398566
 30
0.0
 11
4.3132809683101119
 21
0.0
 31
0.0
210
0.0
220
0.0
230
1.0
 40
0.893022003762
 41
0.0
 42
0.4053149832753141
  0
ELLIPSE
  5
13F
100
AcDbEntity
  8
Exterior View
370
           0
  6
Continuous
 62
           7
100
AcDbEllipse
 10
18.592736045599
 20
-7.698921083256
 30
0.0
 11
7.2804159947619098
 21
0.0
 31
0.0
210
0.0
220
0.0
230
1.0
 40
0.6622846562
 41
-3.1169684134589257
 42
-2.5128766272760781
  0
ELLIPSE
  5
140
100
AcDbEntity
  8
Exterior View
370
           0
  6
Continuous
 62
           7
100
AcDbEllipse
 10
-0.202928859322
 20
-17.517374181702
 30
0.0
 11
15.959016834854669
 21
0.0
 31
0.0
210
0.0
220
0.0
230
1.0
 40
0.743987541825
 41
0.4053149824369621
 42
0.6287160263137154
  0
LINE
  5
141
100
AcDbEntity
  8
Exterior View
370
           0
  6
Continuous
 62
           7
100
AcDbLine
 10
-0.189467220323
 20
-30.755225125325
 30
0.0
 11
1.314527191083
 21
-30.755225125325
 31
0.0
1001
TCAD
1000
TCW_CUSTOM_DATA
1002
{
1000
#$AUX@_ToolInfo Properties
1070
           8
1000
Insert^JLine^JSingle@Line Single
1002
}
  0
LWPOLYLINE
  5
142
100
AcDbEntity
  8
Exterior View
370
           0
  6
Continuous
 62
           7
100
AcDbPolyline
 90
        9
 70
           0
 10
-3.25149347381
 20
-35.824753917781
 10
-3.329005807502
 20
-35.99847880734
 10
-3.399076708309
 20
-36.182969084353
 10
-3.457978626422
 20
-36.369317538494
 10
-3.505702692793
 20
-36.556771782233
 10
-3.542302535363
 20
-36.744476306658
 10
-3.56791112838
 20
-36.931363719967
 10
-3.582781722243
 20
-37.115810604968
 10
-3.587504861591
 20
-37.29467327928
  0
LWPOLYLINE
  5
143
100
AcDbEntity
  8
Exterior View
370
           0
  6
Continuous
 62
           7
100
AcDbPolyline
 90
       13
 70
           0
 10
-0.089698605724
 20
-30.762023914992
 10
-0.103358377973
 20
-30.962473792065
 10
-0.132562361308
 20
-31.182250529963
 10
-0.179055307388
 20
-31.411872540376
 10
-0.244194200695
 20
-31.647882109267
 10
-0.328982436153
 20
-31.88789918364
 10
-0.434164123364
 20
-32.130039156798
 10
-0.560274497935
 20
-32.372687806889
 10
-0.70767079481
 20
-32.614396384392
 10
-0.876552761103
 20
-32.853826468578
 10
-1.066976864721
 20
-33.089718396523
 10
-1.278866281791
 20
-33.320872105172
 10
-1.509913709737
 20
-33.544102160947
  0
LWPOLYLINE
  5
144
100
AcDbEntity
  8
Exterior View
370
           0
  6
Continuous
 62
           7
100
AcDbPolyline
 90
       13
 70
           0
 10
1.214758576484
 20
-30.762023914992
 10
1.228418348733
 20
-30.962473792065
 10
1.257622332068
 20
-31.182250529962
 10
1.304115278148
 20
-31.411872540376
 10
1.369254171455
 20
-31.647882109267
 10
1.454042406913
 20
-31.88789918364
 10
1.559224094124
 20
-32.130039156797
 10
1.685334468695
 20
-32.372687806888
 10
1.83273076557
 20
-32.614396384392
 10
2.001612731863
 20
-32.853826468578
 10
2.192036835481
 20
-33.089718396523
 10
2.403926252551
 20
-33.320872105172
 10
2.633080854318
 20
-33.542273377579
  0
LWPOLYLINE
  5
145
100
AcDbEntity
  8
Exterior View
370
           0
  6
Continuous
 62
           7
100
AcDbPolyline
 90
       21
 70
           0
 10
-3.587511564408
 20
-37.289151148008
 10
-3.580868022679
 20
-37.519541820537
 10
-3.561746931886
 20
-37.74155126334
 10
-3.530419212786
 20
-37.960288839365
 10
-3.487145618833
 20
-38.175616873378
 10
-3.432179267274
 20
-38.387106335941
 10
-3.365787312033
 20
-38.594228782324
 10
-3.288259093623
 20
-38.796417676021
 10
-3.199909733454
 20
-38.993094617079
 10
-3.101081663768
 20
-39.18368300639
 10
-2.992145054954
 20
-39.367616261185
 10
-2.873497580681
 20
-39.544343326742
 10
-2.745563748523
 20
-39.713332696683
 10
-2.608793925614
 20
-39.874075532283
 10
-2.463663139551
 20
-40.026088190423
 10
-2.310669708177
 20
-40.16891433233
 10
-2.150333736779
 20
-40.302126713733
 10
-1.983195512222
 20
-40.425328718006
 10
-1.809813817792
 20
-40.538155671952
 10
-1.630764188623
 20
-40.640275971299
 10
-1.445299232715
 20
-40.732054097268
  0
LWPOLYLINE
  5
146
100
AcDbEntity
  8
Exterior View
370
           0
  6
Continuous
 62
           7
100
AcDbPolyline
 90
        6
 70
           0
 10
4.377106313134
 20
-35.824337923886
 10
4.088172853818
 20
-35.352277174107
 10
3.76951221776
 20
-34.887270721188
 10
3.420560563975
 20
-34.429631361861
 10
3.041572686632
 20
-33.980778816011
 10
2.633080854318
 20
-33.542273377579
  0
LWPOLYLINE
  5
147
100
AcDbEntity
  8
Exterior View
370
           0
  6
Continuous
 62
           7
100
AcDbPolyline
 90
        6
 70
           0
 10
-3.25149347381
 20
-35.824753917781
 10
-2.962611499944
 20
-35.352661659245
 10
-2.644001580158
 20
-34.887620455433
 10
-2.295099839359
 20
-34.429943041579
 10
-1.916160916875
 20
-33.981049165351
 10
-1.505923114822
 20
-33.540573163574
  0
LWPOLYLINE
  5
148
100
AcDbEntity
  8
Exterior View
370
           0
  6
Continuous
 62
           7
100
AcDbPolyline
 90
        9
 70
           0
 10
4.377106313134
 20
-35.824337923886
 10
4.45463759309
 20
-35.998054358788
 10
4.524728614297
 20
-36.182536992654
 10
4.583650855532
 20
-36.368879021746
 10
4.631395365691
 20
-36.556328059504
 10
4.668015679412
 20
-36.744028591173
 10
4.693644654528
 20
-36.930913210455
 10
4.708535364387
 20
-37.115358472547
 10
4.713278010768
 20
-37.294220630682
  0
LWPOLYLINE
  5
149
100
AcDbEntity
  8
Exterior View
370
           0
  6
Continuous
 62
           7
100
AcDbPolyline
 90
       21
 70
           0
 10
4.713284111332
 20
-37.288698498712
 10
4.706665696433
 20
-37.519089894427
 10
4.687568818473
 20
-37.741101421287
 10
4.656264955444
 20
-37.959842412664
 10
4.613014845781
 20
-38.175175164887
 10
4.558071559942
 20
-38.386670620913
 10
4.491702194214
 20
-38.593800306882
 10
4.414196027323
 20
-38.795997654733
 10
4.325868117593
 20
-38.99268423015
 10
4.227060834382
 20
-39.183283396681
 10
4.118144286283
 20
-39.36722853119
 10
3.999516086864
 20
-39.543968535587
 10
3.871600685728
 20
-39.712971857199
 10
3.734848394513
 20
-39.873729608188
 10
3.589734188067
 20
-40.025758093629
 10
3.43675633446
 20
-40.168600920405
 10
3.27643489238
 20
-40.301830787523
 10
3.109310105432
 20
-40.425051019436
 10
2.935940717128
 20
-40.537896882007
 10
2.756902226434
 20
-40.640036708198
 10
2.570139229057
 20
-40.732482533485
  0
LWPOLYLINE
  5
14A
100
AcDbEntity
  8
Exterior View
370
           0
  6
Continuous
 62
           7
100
AcDbPolyline
 90
        9
 70
           0
 10
-3.057459470749
 20
-35.926858828628
 10
-3.126664853178
 20
-36.081965723837
 10
-3.192324875948
 20
-36.254842562154
 10
-3.247477390964
 20
-36.429329000705
 10
-3.292135049412
 20
-36.6047387725
 10
-3.326365932907
 20
-36.780293945854
 10
-3.350308864729
 20
-36.955025630342
 10
-3.364214089521
 20
-37.127498594221
 10
-3.368781106762
 20
-37.300449010727
  0
LWPOLYLINE
  5
14B
100
AcDbEntity
  8
Exterior View
370
           0
  6
Continuous
 62
           7
100
AcDbPolyline
 90
       21
 70
           0
 10
-3.368802475345
 20
-37.282844456232
 10
-3.362338998717
 20
-37.506990670383
 10
-3.344282981655
 20
-37.716633850826
 10
-3.314699189276
 20
-37.923194916248
 10
-3.273840834221
 20
-38.126504797937
 10
-3.221953901293
 20
-38.326145837367
 10
-3.159298964249
 20
-38.521609938273
 10
-3.086158738431
 20
-38.712355213301
 10
-3.002841223722
 20
-38.897830624759
 10
-2.909680851107
 20
-39.077488948764
 10
-2.8070385561
 20
-39.25079461346
 10
-2.69530120362
 20
-39.417228956357
 10
-2.574880587332
 20
-39.57629402719
 10
-2.446212134578
 20
-39.727515484586
 10
-2.309753402457
 20
-39.870444873717
 10
-2.165982426649
 20
-40.004661445033
 10
-2.015395971134
 20
-40.129773609017
 10
-1.858507719022
 20
-40.245420087603
 10
-1.6958464393
 20
-40.351270804868
 10
-1.527954160054
 20
-40.447027550605
 10
-1.358538183709
 20
-40.530863770456
  0
LWPOLYLINE
  5
14C
100
AcDbEntity
  8
Exterior View
370
           0
  6
Continuous
 62
           7
100
AcDbPolyline
 90
       21
 70
           0
 10
4.494574335752
 20
-37.28241565975
 10
4.488135304921
 20
-37.506562577485
 10
4.470102152
 20
-37.716207725902
 10
4.440540887691
 20
-37.922772016552
 10
4.399704706193
 20
-38.126086353113
 10
4.347839546758
 20
-38.325733050231
 10
4.285205927727
 20
-38.521203983225
 10
4.212086505341
 20
-38.711957233914
 10
4.128789219384
 20
-38.897441731016
 10
4.035648441159
 20
-39.077110214177
 10
3.933025047766
 20
-39.250427072182
 10
3.821305847557
 20
-39.416873600351
 10
3.700902579887
 20
-39.575951803511
 10
3.572250620362
 20
-39.727187292803
 10
3.435807477169
 20
-39.870131563501
 10
3.292051140099
 20
-40.00436381392
 10
3.141478330421
 20
-40.12949240037
 10
2.984602691839
 20
-40.245155988761
 10
2.82195295734
 20
-40.351024445507
 10
2.654071122483
 20
-40.446799501286
 10
2.482221898328
 20
-40.53186315723
  0
LWPOLYLINE
  5
14D
100
AcDbEntity
  8
Exterior View
370
           0
  6
Continuous
 62
           7
100
AcDbPolyline
 90
        6
 70
           0
 10
4.183083446958
 20
-35.926463995797
 10
3.904498147067
 20
-35.471310114153
 10
3.592159750007
 20
-35.015529406742
 10
3.249871030672
 20
-34.566628280977
 10
2.877838067642
 20
-34.12601275584
 10
2.476909286783
 20
-33.695626057934
  0
LWPOLYLINE
  5
14E
100
AcDbEntity
  8
Exterior View
370
           0
  6
Continuous
 62
           7
100
AcDbPolyline
 90
        9
 70
           0
 10
4.183083446958
 20
-35.926463995797
 10
4.252305745191
 20
-36.081563342429
 10
4.317984621807
 20
-36.254433018727
 10
4.373156166277
 20
-36.428913441215
 10
4.41783295494
 20
-36.604318341528
 10
4.452082984571
 20
-36.779869780561
 10
4.476044972778
 20
-36.954598852754
 10
4.489969007677
 20
-37.12707029908
 10
4.494554887151
 20
-37.300020216471
  0
LWPOLYLINE
  5
14F
100
AcDbEntity
  8
Exterior View
370
           0
  6
Continuous
 62
           7
100
AcDbPolyline
 90
        3
 70
           0
 10
2.046934061427
 20
-33.255225125325
 10
2.247122093762
 20
-33.473613597677
 10
2.476909286783
 20
-33.695626057934
  0
LWPOLYLINE
  5
150
100
AcDbEntity
  8
Exterior View
370
           0
  6
Continuous
 62
           7
100
AcDbPolyline
 90
        3
 70
           0
 10
-0.921874090667
 20
-33.255225125325
 10
-1.122062123002
 20
-33.473613597677
 10
-1.346706255007
 20
-33.690657009771
  0
LWPOLYLINE
  5
151
100
AcDbEntity
  8
Exterior View
370
           0
  6
Continuous
 62
           7
100
AcDbPolyline
 90
        6
 70
           0
 10
-3.057459470749
 20
-35.926858828628
 10
-2.778923812354
 20
-35.471674566715
 10
-2.466635125354
 20
-35.015859797868
 10
-2.124395365959
 20
-34.566921344196
 10
-1.752410459404
 20
-34.126265247145
 10
-1.345809997007
 20
-33.689694689531
  0
ARC
  5
152
100
AcDbEntity
  8
Exterior View
370
           0
  6
Continuous
 62
           7
100
AcDbCircle
 10
0.56253160224
 20
-36.356197026164
 30
0.0
 40
4.914510335281
100
AcDbArc
 50
-114.664878156564
 51
-65.335156104121
  0
ARC
  5
153
100
AcDbEntity
  8
Exterior View
370
           0
  6
Continuous
 62
           7
100
AcDbCircle
 10
0.56253160224
 20
-36.356197026164
 30
0.0
 40
4.814510335281
100
AcDbArc
 50
-114.647686457713
 51
-65.335156104121
  0
ARC
  5
154
100
AcDbEntity
  8
Exterior View
370
           0
  6
Continuous
 62
           7
100
AcDbCircle
 10
0.56253160224
 20
-36.356197026164
 30
0.0
 40
4.595710335281
100
AcDbArc
 50
-114.664878156564
 51
-105.782903902859
  0
ARC
  5
155
100
AcDbEntity
  8
Exterior View
370
           0
  6
Continuous
 62
           7
100
AcDbCircle
 10
0.56253160224
 20
-36.356197026164
 30
0.0
 40
4.595710335281
100
AcDbArc
 50
-74.217137992134
 51
-65.335156104121
  0
LINE
  5
156
100
AcDbEntity
  8
Exterior View
370
           0
  6
Continuous
 62
           7
100
AcDbLine
 10
-0.089698605724
 20
-30.755225125325
 30
0.0
 11
-0.089698605724
 21
-30.762023914992
 31
0.0
1001
TCAD
1000
TCW_CUSTOM_DATA
1002
{
1000
#$AUX@_ToolInfo Properties
1070
           8
1000
Insert^JLine^JPerpendicular@Line Perpendicular
1002
}
  0
LINE
  5
157
100
AcDbEntity
  8
Exterior View
370
           0
  6
Continuous
 62
           7
100
AcDbLine
 10
1.214758576484
 20
-30.755225125325
 30
0.0
 11
1.214758576484
 21
-30.762023914992
 31
0.0
1001
TCAD
1000
TCW_CUSTOM_DATA
1002
{
1000
#$AUX@_ToolInfo Properties
1070
           8
1000
Insert^JLine^JPerpendicular@Line Perpendicular
1002
}
  0
LINE
  5
158
100
AcDbEntity
  8
Exterior View
370
           0
  6
Continuous
 62
           7
100
AcDbLine
 10
-6.03122001462
 20
-18.309272647409
 30
0.0
 11
-6.03122001462
 21
0.001360024381
 31
0.0
1001
TCAD
1000
TCW_CUSTOM_DATA
1002
{
1000
#$AUX@_ToolInfo Properties
1070
           8
1000
Insert^JLine^JPerpendicular@Line Perpendicular
1002
}
  0
LINE
  5
159
100
AcDbEntity
  8
Exterior View
370
           0
  6
Continuous
 62
           7
100
AcDbLine
 10
-7.90622001462
 20
-18.309272647409
 30
0.0
 11
-7.90622001462
 21
-7.380139975619
 31
0.0
  0
LINE
  5
15A
100
AcDbEntity
  8
Exterior View
370
           0
  6
Continuous
 62
           7
100
AcDbLine
 10
-7.066509317058
 20
3.8650598135
 30
0.0
 11
-6.031234078767
 21
0.001360024381
 31
0.0
1001
TCAD
1000
TCW_CUSTOM_DATA
1002
{
1000
#$AUX@_ToolInfo Properties
1070
           8
1000
Insert^JLine^JPerpendicular@Line Perpendicular
1002
}
  0
LINE
  5
15B
100
AcDbEntity
  8
Exterior View
370
           0
  6
Continuous
 62
           7
100
AcDbLine
 10
-6.03122001462
 20
-0.123639975619
 30
0.0
 11
-5.82809501462
 21
-0.123639975619
 31
0.0
1001
TCAD
1000
TCW_CUSTOM_DATA
1002
{
1000
#$AUX@_ToolInfo Properties
1070
           8
1000
Insert^JLine^JPerpendicular@Line Perpendicular
1002
}
  0
LINE
  5
15C
100
AcDbEntity
  8
Exterior View
370
           0
  6
Continuous
 62
           7
100
AcDbLine
 10
-5.82809501462
 20
-0.123639975619
 30
0.0
 11
-5.82809501462
 21
-10.43613997562
 31
0.0
1001
TCAD
1000
TCW_CUSTOM_DATA
1002
{
1000
#$AUX@_ToolInfo Properties
1070
           8
1000
Insert^JLine^JPerpendicular@Line Perpendicular
1002
}
  0
LINE
  5
15D
100
AcDbEntity
  8
Exterior View
370
           0
  6
Continuous
 62
           7
100
AcDbLine
 10
-6.03122001462
 20
0.001360024381
 30
0.0
 11
-5.82809501462
 21
0.001360024381
 31
0.0
1001
TCAD
1000
TCW_CUSTOM_DATA
1002
{
1000
#$AUX@_ToolInfo Properties
1070
           8
1000
Insert^JLine^JSingle@Line Single
1002
}
  0
LINE
  5
15E
100
AcDbEntity
  8
Exterior View
370
           0
  6
Continuous
 62
           7
100
AcDbLine
 10
-5.76559501462
 20
-0.123639975619
 30
0.0
 11
-5.76559501462
 21
-0.061139975619
 31
0.0
1001
TCAD
1000
TCW_CUSTOM_DATA
1002
{
1000
#$AUX@_ToolInfo Properties
1070
           8
1000
Insert^JLine^JSingle@Line Single
1002
}
  0
LINE
  5
15F
100
AcDbEntity
  8
Exterior View
370
           0
  6
Continuous
 62
           7
100
AcDbLine
 10
-5.82809501462
 20
-0.123639975619
 30
0.0
 11
-5.76559501462
 21
-0.123639975619
 31
0.0
1001
TCAD
1000
TCW_CUSTOM_DATA
1002
{
1000
#$AUX@_ToolInfo Properties
1070
           8
1000
Insert^JLine^JSingle@Line Single
1002
}
  0
LINE
  5
160
100
AcDbEntity
  8
Exterior View
370
           0
  6
Continuous
 62
           7
100
AcDbLine
 10
-5.82809501462
 20
-0.876139975619
 30
0.0
 11
-5.81884501462
 21
-0.876139975619
 31
0.0
1001
TCAD
1000
TCW_CUSTOM_DATA
1002
{
1000
#$AUX@_ToolInfo Properties
1070
           8
1000
Insert^JLine^JPerpendicular@Line Perpendicular
1002
}
  0
LINE
  5
161
100
AcDbEntity
  8
Exterior View
370
           0
  6
Continuous
 62
           7
100
AcDbLine
 10
-5.82809501462
 20
-0.929139975619
 30
0.0
 11
-5.81884501462
 21
-0.929139975619
 31
0.0
1001
TCAD
1000
TCW_CUSTOM_DATA
1002
{
1000
#$AUX@_ToolInfo Properties
1070
           8
1000
Insert^JLine^JPerpendicular@Line Perpendicular
1002
}
  0
ARC
  5
162
100
AcDbEntity
  8
Exterior View
370
           0
  6
Continuous
 62
           7
100
AcDbCircle
 10
-5.817623167773
 20
-0.902639975619
 30
0.0
 40
0.026528153153
100
AcDbArc
 50
-92.639891387827
 51
92.639891387827
1001
TCAD
1000
TCW_CUSTOM_DATA
1002
{
1000
#$AUX@_ToolInfo Properties
1070
           8
1000
Insert^JArc^JTriplePoint132@Arc TriplePoint132
1002
}
  0
LINE
  5
163
100
AcDbEntity
  8
Exterior View
370
           0
  6
Continuous
 62
           7
100
AcDbLine
 10
-5.82809501462
 20
-1.611139975619
 30
0.0
 11
-5.81884501462
 21
-1.611139975619
 31
0.0
1001
TCAD
1000
TCW_CUSTOM_DATA
1002
{
1000
#$AUX@_ToolInfo Properties
1070
           8
1000
Insert^JLine^JPerpendicular@Line Perpendicular
1002
}
  0
LINE
  5
164
100
AcDbEntity
  8
Exterior View
370
           0
  6
Continuous
 62
           7
100
AcDbLine
 10
-5.82809501462
 20
-1.664139975619
 30
0.0
 11
-5.81884501462
 21
-1.664139975619
 31
0.0
1001
TCAD
1000
TCW_CUSTOM_DATA
1002
{
1000
#$AUX@_ToolInfo Properties
1070
           8
1000
Insert^JLine^JPerpendicular@Line Perpendicular
1002
}
  0
ARC
  5
165
100
AcDbEntity
  8
Exterior View
370
           0
  6
Continuous
 62
           7
100
AcDbCircle
 10
-5.817623167773
 20
-1.637639975619
 30
0.0
 40
0.026528153153
100
AcDbArc
 50
-92.639891387827
 51
92.639891387827
1001
TCAD
1000
TCW_CUSTOM_DATA
1002
{
1000
#$AUX@_ToolInfo Properties
1070
           8
1000
Insert^JArc^JTriplePoint132@Arc TriplePoint132
1002
}
  0
LINE
  5
166
100
AcDbEntity
  8
Exterior View
370
           0
  6
Continuous
 62
           7
100
AcDbLine
 10
-5.82809501462
 20
-2.305139975619
 30
0.0
 11
-5.81884501462
 21
-2.305139975619
 31
0.0
1001
TCAD
1000
TCW_CUSTOM_DATA
1002
{
1000
#$AUX@_ToolInfo Properties
1070
           8
1000
Insert^JLine^JPerpendicular@Line Perpendicular
1002
}
  0
LINE
  5
167
100
AcDbEntity
  8
Exterior View
370
           0
  6
Continuous
 62
           7
100
AcDbLine
 10
-5.82809501462
 20
-2.358139975619
 30
0.0
 11
-5.81884501462
 21
-2.358139975619
 31
0.0
1001
TCAD
1000
TCW_CUSTOM_DATA
1002
{
1000
#$AUX@_ToolInfo Properties
1070
           8
1000
Insert^JLine^JPerpendicular@Line Perpendicular
1002
}
  0
ARC
  5
168
100
AcDbEntity
  8
Exterior View
370
           0
  6
Continuous
 62
           7
100
AcDbCircle
 10
-5.817623167773
 20
-2.331639975619
 30
0.0
 40
0.026528153153
100
AcDbArc
 50
-92.639891387827
 51
92.639891387827
1001
TCAD
1000
TCW_CUSTOM_DATA
1002
{
1000
#$AUX@_ToolInfo Properties
1070
           8
1000
Insert^JArc^JTriplePoint132@Arc TriplePoint132
1002
}
  0
LINE
  5
169
100
AcDbEntity
  8
Exterior View
370
           0
  6
Continuous
 62
           7
100
AcDbLine
 10
-5.82809501462
 20
-2.959139975619
 30
0.0
 11
-5.81884501462
 21
-2.959139975619
 31
0.0
1001
TCAD
1000
TCW_CUSTOM_DATA
1002
{
1000
#$AUX@_ToolInfo Properties
1070
           8
1000
Insert^JLine^JPerpendicular@Line Perpendicular
1002
}
  0
LINE
  5
16A
100
AcDbEntity
  8
Exterior View
370
           0
  6
Continuous
 62
           7
100
AcDbLine
 10
-5.82809501462
 20
-3.012139975619
 30
0.0
 11
-5.81884501462
 21
-3.012139975619
 31
0.0
1001
TCAD
1000
TCW_CUSTOM_DATA
1002
{
1000
#$AUX@_ToolInfo Properties
1070
           8
1000
Insert^JLine^JPerpendicular@Line Perpendicular
1002
}
  0
ARC
  5
16B
100
AcDbEntity
  8
Exterior View
370
           0
  6
Continuous
 62
           7
100
AcDbCircle
 10
-5.817623167773
 20
-2.985639975619
 30
0.0
 40
0.026528153153
100
AcDbArc
 50
-92.639891387827
 51
92.639891387827
1001
TCAD
1000
TCW_CUSTOM_DATA
1002
{
1000
#$AUX@_ToolInfo Properties
1070
           8
1000
Insert^JArc^JTriplePoint132@Arc TriplePoint132
1002
}
  0
LINE
  5
16C
100
AcDbEntity
  8
Exterior View
370
           0
  6
Continuous
 62
           7
100
AcDbLine
 10
-5.82809501462
 20
-3.577139975619
 30
0.0
 11
-5.81884501462
 21
-3.577139975619
 31
0.0
1001
TCAD
1000
TCW_CUSTOM_DATA
1002
{
1000
#$AUX@_ToolInfo Properties
1070
           8
1000
Insert^JLine^JPerpendicular@Line Perpendicular
1002
}
  0
LINE
  5
16D
100
AcDbEntity
  8
Exterior View
370
           0
  6
Continuous
 62
           7
100
AcDbLine
 10
-5.82809501462
 20
-3.630139975619
 30
0.0
 11
-5.81884501462
 21
-3.630139975619
 31
0.0
1001
TCAD
1000
TCW_CUSTOM_DATA
1002
{
1000
#$AUX@_ToolInfo Properties
1070
           8
1000
Insert^JLine^JPerpendicular@Line Perpendicular
1002
}
  0
ARC
  5
16E
100
AcDbEntity
  8
Exterior View
370
           0
  6
Continuous
 62
           7
100
AcDbCircle
 10
-5.817623167773
 20
-3.603639975619
 30
0.0
 40
0.026528153153
100
AcDbArc
 50
-92.639891387827
 51
92.639891387826
1001
TCAD
1000
TCW_CUSTOM_DATA
1002
{
1000
#$AUX@_ToolInfo Properties
1070
           8
1000
Insert^JArc^JTriplePoint132@Arc TriplePoint132
1002
}
  0
LINE
  5
16F
100
AcDbEntity
  8
Exterior View
370
           0
  6
Continuous
 62
           7
100
AcDbLine
 10
-5.82809501462
 20
-4.161139975619
 30
0.0
 11
-5.81884501462
 21
-4.161139975619
 31
0.0
1001
TCAD
1000
TCW_CUSTOM_DATA
1002
{
1000
#$AUX@_ToolInfo Properties
1070
           8
1000
Insert^JLine^JPerpendicular@Line Perpendicular
1002
}
  0
LINE
  5
170
100
AcDbEntity
  8
Exterior View
370
           0
  6
Continuous
 62
           7
100
AcDbLine
 10
-5.82809501462
 20
-4.214139975619
 30
0.0
 11
-5.81884501462
 21
-4.214139975619
 31
0.0
1001
TCAD
1000
TCW_CUSTOM_DATA
1002
{
1000
#$AUX@_ToolInfo Properties
1070
           8
1000
Insert^JLine^JPerpendicular@Line Perpendicular
1002
}
  0
ARC
  5
171
100
AcDbEntity
  8
Exterior View
370
           0
  6
Continuous
 62
           7
100
AcDbCircle
 10
-5.817623167773
 20
-4.187639975619
 30
0.0
 40
0.026528153153
100
AcDbArc
 50
-92.639891387827
 51
92.639891387827
1001
TCAD
1000
TCW_CUSTOM_DATA
1002
{
1000
#$AUX@_ToolInfo Properties
1070
           8
1000
Insert^JArc^JTriplePoint132@Arc TriplePoint132
1002
}
  0
LINE
  5
172
100
AcDbEntity
  8
Exterior View
370
           0
  6
Continuous
 62
           7
100
AcDbLine
 10
-5.82809501462
 20
-4.712139975619
 30
0.0
 11
-5.81884501462
 21
-4.712139975619
 31
0.0
1001
TCAD
1000
TCW_CUSTOM_DATA
1002
{
1000
#$AUX@_ToolInfo Properties
1070
           8
1000
Insert^JLine^JPerpendicular@Line Perpendicular
1002
}
  0
LINE
  5
173
100
AcDbEntity
  8
Exterior View
370
           0
  6
Continuous
 62
           7
100
AcDbLine
 10
-5.82809501462
 20
-4.765139975619
 30
0.0
 11
-5.81884501462
 21
-4.765139975619
 31
0.0
1001
TCAD
1000
TCW_CUSTOM_DATA
1002
{
1000
#$AUX@_ToolInfo Properties
1070
           8
1000
Insert^JLine^JPerpendicular@Line Perpendicular
1002
}
  0
ARC
  5
174
100
AcDbEntity
  8
Exterior View
370
           0
  6
Continuous
 62
           7
100
AcDbCircle
 10
-5.817623167773
 20
-4.738639975619
 30
0.0
 40
0.026528153153
100
AcDbArc
 50
-92.639891387827
 51
92.639891387826
1001
TCAD
1000
TCW_CUSTOM_DATA
1002
{
1000
#$AUX@_ToolInfo Properties
1070
           8
1000
Insert^JArc^JTriplePoint132@Arc TriplePoint132
1002
}
  0
LINE
  5
175
100
AcDbEntity
  8
Exterior View
370
           0
  6
Continuous
 62
           7
100
AcDbLine
 10
-5.82809501462
 20
-5.231139975619
 30
0.0
 11
-5.81884501462
 21
-5.231139975619
 31
0.0
1001
TCAD
1000
TCW_CUSTOM_DATA
1002
{
1000
#$AUX@_ToolInfo Properties
1070
           8
1000
Insert^JLine^JPerpendicular@Line Perpendicular
1002
}
  0
LINE
  5
176
100
AcDbEntity
  8
Exterior View
370
           0
  6
Continuous
 62
           7
100
AcDbLine
 10
-5.82809501462
 20
-5.284139975619
 30
0.0
 11
-5.81884501462
 21
-5.284139975619
 31
0.0
1001
TCAD
1000
TCW_CUSTOM_DATA
1002
{
1000
#$AUX@_ToolInfo Properties
1070
           8
1000
Insert^JLine^JPerpendicular@Line Perpendicular
1002
}
  0
ARC
  5
177
100
AcDbEntity
  8
Exterior View
370
           0
  6
Continuous
 62
           7
100
AcDbCircle
 10
-5.817623167773
 20
-5.257639975619
 30
0.0
 40
0.026528153153
100
AcDbArc
 50
-92.639891387827
 51
92.639891387827
1001
TCAD
1000
TCW_CUSTOM_DATA
1002
{
1000
#$AUX@_ToolInfo Properties
1070
           8
1000
Insert^JArc^JTriplePoint132@Arc TriplePoint132
1002
}
  0
LINE
  5
178
100
AcDbEntity
  8
Exterior View
370
           0
  6
Continuous
 62
           7
100
AcDbLine
 10
-5.82809501462
 20
-5.722139975619
 30
0.0
 11
-5.81884501462
 21
-5.722139975619
 31
0.0
1001
TCAD
1000
TCW_CUSTOM_DATA
1002
{
1000
#$AUX@_ToolInfo Properties
1070
           8
1000
Insert^JLine^JPerpendicular@Line Perpendicular
1002
}
  0
LINE
  5
179
100
AcDbEntity
  8
Exterior View
370
           0
  6
Continuous
 62
           7
100
AcDbLine
 10
-5.82809501462
 20
-5.775139975619
 30
0.0
 11
-5.81884501462
 21
-5.775139975619
 31
0.0
1001
TCAD
1000
TCW_CUSTOM_DATA
1002
{
1000
#$AUX@_ToolInfo Properties
1070
           8
1000
Insert^JLine^JPerpendicular@Line Perpendicular
1002
}
  0
ARC
  5
17A
100
AcDbEntity
  8
Exterior View
370
           0
  6
Continuous
 62
           7
100
AcDbCircle
 10
-5.817623167773
 20
-5.748639975619
 30
0.0
 40
0.026528153153
100
AcDbArc
 50
-92.639891387827
 51
92.639891387827
1001
TCAD
1000
TCW_CUSTOM_DATA
1002
{
1000
#$AUX@_ToolInfo Properties
1070
           8
1000
Insert^JArc^JTriplePoint132@Arc TriplePoint132
1002
}
  0
LINE
  5
17B
100
AcDbEntity
  8
Exterior View
370
           0
  6
Continuous
 62
           7
100
AcDbLine
 10
-5.82809501462
 20
-6.185139975619
 30
0.0
 11
-5.81884501462
 21
-6.185139975619
 31
0.0
1001
TCAD
1000
TCW_CUSTOM_DATA
1002
{
1000
#$AUX@_ToolInfo Properties
1070
           8
1000
Insert^JLine^JPerpendicular@Line Perpendicular
1002
}
  0
LINE
  5
17C
100
AcDbEntity
  8
Exterior View
370
           0
  6
Continuous
 62
           7
100
AcDbLine
 10
-5.82809501462
 20
-6.238139975619
 30
0.0
 11
-5.81884501462
 21
-6.238139975619
 31
0.0
1001
TCAD
1000
TCW_CUSTOM_DATA
1002
{
1000
#$AUX@_ToolInfo Properties
1070
           8
1000
Insert^JLine^JPerpendicular@Line Perpendicular
1002
}
  0
ARC
  5
17D
100
AcDbEntity
  8
Exterior View
370
           0
  6
Continuous
 62
           7
100
AcDbCircle
 10
-5.817623167773
 20
-6.211639975619
 30
0.0
 40
0.026528153153
100
AcDbArc
 50
-92.639891387842
 51
92.639891387842
1001
TCAD
1000
TCW_CUSTOM_DATA
1002
{
1000
#$AUX@_ToolInfo Properties
1070
           8
1000
Insert^JArc^JTriplePoint132@Arc TriplePoint132
1002
}
  0
LINE
  5
17E
100
AcDbEntity
  8
Exterior View
370
           0
  6
Continuous
 62
           7
100
AcDbLine
 10
-5.82809501462
 20
-6.622139975619
 30
0.0
 11
-5.81884501462
 21
-6.622139975619
 31
0.0
1001
TCAD
1000
TCW_CUSTOM_DATA
1002
{
1000
#$AUX@_ToolInfo Properties
1070
           8
1000
Insert^JLine^JPerpendicular@Line Perpendicular
1002
}
  0
LINE
  5
17F
100
AcDbEntity
  8
Exterior View
370
           0
  6
Continuous
 62
           7
100
AcDbLine
 10
-5.82809501462
 20
-6.675139975619
 30
0.0
 11
-5.81884501462
 21
-6.675139975619
 31
0.0
1001
TCAD
1000
TCW_CUSTOM_DATA
1002
{
1000
#$AUX@_ToolInfo Properties
1070
           8
1000
Insert^JLine^JPerpendicular@Line Perpendicular
1002
}
  0
ARC
  5
180
100
AcDbEntity
  8
Exterior View
370
           0
  6
Continuous
 62
           7
100
AcDbCircle
 10
-5.817623167773
 20
-6.648639975619
 30
0.0
 40
0.026528153153
100
AcDbArc
 50
-92.639891387842
 51
92.639891387843
1001
TCAD
1000
TCW_CUSTOM_DATA
1002
{
1000
#$AUX@_ToolInfo Properties
1070
           8
1000
Insert^JArc^JTriplePoint132@Arc TriplePoint132
1002
}
  0
LINE
  5
181
100
AcDbEntity
  8
Exterior View
370
           0
  6
Continuous
 62
           7
100
AcDbLine
 10
-5.82809501462
 20
-7.034139975619
 30
0.0
 11
-5.81884501462
 21
-7.034139975619
 31
0.0
1001
TCAD
1000
TCW_CUSTOM_DATA
1002
{
1000
#$AUX@_ToolInfo Properties
1070
           8
1000
Insert^JLine^JPerpendicular@Line Perpendicular
1002
}
  0
LINE
  5
182
100
AcDbEntity
  8
Exterior View
370
           0
  6
Continuous
 62
           7
100
AcDbLine
 10
-5.82809501462
 20
-7.087139975619
 30
0.0
 11
-5.81884501462
 21
-7.087139975619
 31
0.0
1001
TCAD
1000
TCW_CUSTOM_DATA
1002
{
1000
#$AUX@_ToolInfo Properties
1070
           8
1000
Insert^JLine^JPerpendicular@Line Perpendicular
1002
}
  0
ARC
  5
183
100
AcDbEntity
  8
Exterior View
370
           0
  6
Continuous
 62
           7
100
AcDbCircle
 10
-5.817623167773
 20
-7.060639975619
 30
0.0
 40
0.026528153153
100
AcDbArc
 50
-92.639891387842
 51
92.639891387843
1001
TCAD
1000
TCW_CUSTOM_DATA
1002
{
1000
#$AUX@_ToolInfo Properties
1070
           8
1000
Insert^JArc^JTriplePoint132@Arc TriplePoint132
1002
}
  0
LINE
  5
184
100
AcDbEntity
  8
Exterior View
370
           0
  6
Continuous
 62
           7
100
AcDbLine
 10
-5.82809501462
 20
-7.424139975619
 30
0.0
 11
-5.81884501462
 21
-7.424139975619
 31
0.0
1001
TCAD
1000
TCW_CUSTOM_DATA
1002
{
1000
#$AUX@_ToolInfo Properties
1070
           8
1000
Insert^JLine^JPerpendicular@Line Perpendicular
1002
}
  0
LINE
  5
185
100
AcDbEntity
  8
Exterior View
370
           0
  6
Continuous
 62
           7
100
AcDbLine
 10
-5.82809501462
 20
-7.477139975619
 30
0.0
 11
-5.81884501462
 21
-7.477139975619
 31
0.0
1001
TCAD
1000
TCW_CUSTOM_DATA
1002
{
1000
#$AUX@_ToolInfo Properties
1070
           8
1000
Insert^JLine^JPerpendicular@Line Perpendicular
1002
}
  0
ARC
  5
186
100
AcDbEntity
  8
Exterior View
370
           0
  6
Continuous
 62
           7
100
AcDbCircle
 10
-5.817623167773
 20
-7.450639975619
 30
0.0
 40
0.026528153153
100
AcDbArc
 50
-92.639891387842
 51
92.639891387842
1001
TCAD
1000
TCW_CUSTOM_DATA
1002
{
1000
#$AUX@_ToolInfo Properties
1070
           8
1000
Insert^JArc^JTriplePoint132@Arc TriplePoint132
1002
}
  0
LINE
  5
187
100
AcDbEntity
  8
Exterior View
370
           0
  6
Continuous
 62
           7
100
AcDbLine
 10
-5.82809501462
 20
-7.791139975619
 30
0.0
 11
-5.81884501462
 21
-7.791139975619
 31
0.0
1001
TCAD
1000
TCW_CUSTOM_DATA
1002
{
1000
#$AUX@_ToolInfo Properties
1070
           8
1000
Insert^JLine^JPerpendicular@Line Perpendicular
1002
}
  0
LINE
  5
188
100
AcDbEntity
  8
Exterior View
370
           0
  6
Continuous
 62
           7
100
AcDbLine
 10
-5.82809501462
 20
-7.844139975619
 30
0.0
 11
-5.81884501462
 21
-7.844139975619
 31
0.0
1001
TCAD
1000
TCW_CUSTOM_DATA
1002
{
1000
#$AUX@_ToolInfo Properties
1070
           8
1000
Insert^JLine^JPerpendicular@Line Perpendicular
1002
}
  0
ARC
  5
189
100
AcDbEntity
  8
Exterior View
370
           0
  6
Continuous
 62
           7
100
AcDbCircle
 10
-5.817623167773
 20
-7.817639975619
 30
0.0
 40
0.026528153153
100
AcDbArc
 50
-92.639891387842
 51
92.639891387842
1001
TCAD
1000
TCW_CUSTOM_DATA
1002
{
1000
#$AUX@_ToolInfo Properties
1070
           8
1000
Insert^JArc^JTriplePoint132@Arc TriplePoint132
1002
}
  0
LINE
  5
18A
100
AcDbEntity
  8
Exterior View
370
           0
  6
Continuous
 62
           7
100
AcDbLine
 10
-5.82809501462
 20
-8.138139975619
 30
0.0
 11
-5.81884501462
 21
-8.138139975619
 31
0.0
1001
TCAD
1000
TCW_CUSTOM_DATA
1002
{
1000
#$AUX@_ToolInfo Properties
1070
           8
1000
Insert^JLine^JPerpendicular@Line Perpendicular
1002
}
  0
LINE
  5
18B
100
AcDbEntity
  8
Exterior View
370
           0
  6
Continuous
 62
           7
100
AcDbLine
 10
-5.82809501462
 20
-8.191139975619
 30
0.0
 11
-5.81884501462
 21
-8.191139975619
 31
0.0
1001
TCAD
1000
TCW_CUSTOM_DATA
1002
{
1000
#$AUX@_ToolInfo Properties
1070
           8
1000
Insert^JLine^JPerpendicular@Line Perpendicular
1002
}
  0
ARC
  5
18C
100
AcDbEntity
  8
Exterior View
370
           0
  6
Continuous
 62
           7
100
AcDbCircle
 10
-5.817623167773
 20
-8.164639975619
 30
0.0
 40
0.026528153153
100
AcDbArc
 50
-92.639891387842
 51
92.639891387841
1001
TCAD
1000
TCW_CUSTOM_DATA
1002
{
1000
#$AUX@_ToolInfo Properties
1070
           8
1000
Insert^JArc^JTriplePoint132@Arc TriplePoint132
1002
}
  0
LINE
  5
18D
100
AcDbEntity
  8
Exterior View
370
           0
  6
Continuous
 62
           7
100
AcDbLine
 10
-5.82809501462
 20
-8.466139975619
 30
0.0
 11
-5.81884501462
 21
-8.466139975619
 31
0.0
1001
TCAD
1000
TCW_CUSTOM_DATA
1002
{
1000
#$AUX@_ToolInfo Properties
1070
           8
1000
Insert^JLine^JPerpendicular@Line Perpendicular
1002
}
  0
LINE
  5
18E
100
AcDbEntity
  8
Exterior View
370
           0
  6
Continuous
 62
           7
100
AcDbLine
 10
-5.82809501462
 20
-8.519139975619
 30
0.0
 11
-5.81884501462
 21
-8.519139975619
 31
0.0
1001
TCAD
1000
TCW_CUSTOM_DATA
1002
{
1000
#$AUX@_ToolInfo Properties
1070
           8
1000
Insert^JLine^JPerpendicular@Line Perpendicular
1002
}
  0
ARC
  5
18F
100
AcDbEntity
  8
Exterior View
370
           0
  6
Continuous
 62
           7
100
AcDbCircle
 10
-5.817623167773
 20
-8.492639975619
 30
0.0
 40
0.026528153153
100
AcDbArc
 50
-92.639891387842
 51
92.639891387842
1001
TCAD
1000
TCW_CUSTOM_DATA
1002
{
1000
#$AUX@_ToolInfo Properties
1070
           8
1000
Insert^JArc^JTriplePoint132@Arc TriplePoint132
1002
}
  0
LINE
  5
190
100
AcDbEntity
  8
Exterior View
370
           0
  6
Continuous
 62
           7
100
AcDbLine
 10
-5.82809501462
 20
-8.775139975619
 30
0.0
 11
-5.81884501462
 21
-8.775139975619
 31
0.0
1001
TCAD
1000
TCW_CUSTOM_DATA
1002
{
1000
#$AUX@_ToolInfo Properties
1070
           8
1000
Insert^JLine^JPerpendicular@Line Perpendicular
1002
}
  0
LINE
  5
191
100
AcDbEntity
  8
Exterior View
370
           0
  6
Continuous
 62
           7
100
AcDbLine
 10
-5.82809501462
 20
-8.828139975619
 30
0.0
 11
-5.81884501462
 21
-8.828139975619
 31
0.0
1001
TCAD
1000
TCW_CUSTOM_DATA
1002
{
1000
#$AUX@_ToolInfo Properties
1070
           8
1000
Insert^JLine^JPerpendicular@Line Perpendicular
1002
}
  0
ARC
  5
192
100
AcDbEntity
  8
Exterior View
370
           0
  6
Continuous
 62
           7
100
AcDbCircle
 10
-5.817623167773
 20
-8.801639975619
 30
0.0
 40
0.026528153153
100
AcDbArc
 50
-92.639891387842
 51
92.639891387841
1001
TCAD
1000
TCW_CUSTOM_DATA
1002
{
1000
#$AUX@_ToolInfo Properties
1070
           8
1000
Insert^JArc^JTriplePoint132@Arc TriplePoint132
1002
}
  0
LINE
  5
193
100
AcDbEntity
  8
Exterior View
370
           0
  6
Continuous
 62
           7
100
AcDbLine
 10
-5.82809501462
 20
-9.066139975619
 30
0.0
 11
-5.81884501462
 21
-9.066139975619
 31
0.0
1001
TCAD
1000
TCW_CUSTOM_DATA
1002
{
1000
#$AUX@_ToolInfo Properties
1070
           8
1000
Insert^JLine^JPerpendicular@Line Perpendicular
1002
}
  0
LINE
  5
194
100
AcDbEntity
  8
Exterior View
370
           0
  6
Continuous
 62
           7
100
AcDbLine
 10
-5.82809501462
 20
-9.119139975619
 30
0.0
 11
-5.81884501462
 21
-9.119139975619
 31
0.0
1001
TCAD
1000
TCW_CUSTOM_DATA
1002
{
1000
#$AUX@_ToolInfo Properties
1070
           8
1000
Insert^JLine^JPerpendicular@Line Perpendicular
1002
}
  0
ARC
  5
195
100
AcDbEntity
  8
Exterior View
370
           0
  6
Continuous
 62
           7
100
AcDbCircle
 10
-5.817623167773
 20
-9.092639975619
 30
0.0
 40
0.026528153153
100
AcDbArc
 50
-92.639891387842
 51
92.639891387841
1001
TCAD
1000
TCW_CUSTOM_DATA
1002
{
1000
#$AUX@_ToolInfo Properties
1070
           8
1000
Insert^JArc^JTriplePoint132@Arc TriplePoint132
1002
}
  0
LINE
  5
196
100
AcDbEntity
  8
Exterior View
370
           0
  6
Continuous
 62
           7
100
AcDbLine
 10
-5.82809501462
 20
-9.602139975619
 30
0.0
 11
-5.81884501462
 21
-9.602139975619
 31
0.0
1001
TCAD
1000
TCW_CUSTOM_DATA
1002
{
1000
#$AUX@_ToolInfo Properties
1070
           8
1000
Insert^JLine^JPerpendicular@Line Perpendicular
1002
}
  0
LINE
  5
197
100
AcDbEntity
  8
Exterior View
370
           0
  6
Continuous
 62
           7
100
AcDbLine
 10
-5.82809501462
 20
-9.655139975619
 30
0.0
 11
-5.81884501462
 21
-9.655139975619
 31
0.0
1001
TCAD
1000
TCW_CUSTOM_DATA
1002
{
1000
#$AUX@_ToolInfo Properties
1070
           8
1000
Insert^JLine^JPerpendicular@Line Perpendicular
1002
}
  0
ARC
  5
198
100
AcDbEntity
  8
Exterior View
370
           0
  6
Continuous
 62
           7
100
AcDbCircle
 10
-5.817623167773
 20
-9.628639975619
 30
0.0
 40
0.026528153153
100
AcDbArc
 50
-92.639891387842
 51
92.639891387841
1001
TCAD
1000
TCW_CUSTOM_DATA
1002
{
1000
#$AUX@_ToolInfo Properties
1070
           8
1000
Insert^JArc^JTriplePoint132@Arc TriplePoint132
1002
}
  0
LINE
  5
199
100
AcDbEntity
  8
Exterior View
370
           0
  6
Continuous
 62
           7
100
AcDbLine
 10
-5.82809501462
 20
-9.342139975619
 30
0.0
 11
-5.81884501462
 21
-9.342139975619
 31
0.0
1001
TCAD
1000
TCW_CUSTOM_DATA
1002
{
1000
#$AUX@_ToolInfo Properties
1070
           8
1000
Insert^JLine^JPerpendicular@Line Perpendicular
1002
}
  0
LINE
  5
19A
100
AcDbEntity
  8
Exterior View
370
           0
  6
Continuous
 62
           7
100
AcDbLine
 10
-5.82809501462
 20
-9.395139975619
 30
0.0
 11
-5.81884501462
 21
-9.395139975619
 31
0.0
1001
TCAD
1000
TCW_CUSTOM_DATA
1002
{
1000
#$AUX@_ToolInfo Properties
1070
           8
1000
Insert^JLine^JPerpendicular@Line Perpendicular
1002
}
  0
ARC
  5
19B
100
AcDbEntity
  8
Exterior View
370
           0
  6
Continuous
 62
           7
100
AcDbCircle
 10
-5.817623167773
 20
-9.368639975619
 30
0.0
 40
0.026528153153
100
AcDbArc
 50
-92.639891387842
 51
92.639891387842
1001
TCAD
1000
TCW_CUSTOM_DATA
1002
{
1000
#$AUX@_ToolInfo Properties
1070
           8
1000
Insert^JArc^JTriplePoint132@Arc TriplePoint132
1002
}
  0
LINE
  5
19C
100
AcDbEntity
  8
Exterior View
370
           0
  6
Continuous
 62
           7
100
AcDbLine
 10
-5.82809501462
 20
-9.847139975619
 30
0.0
 11
-5.81884501462
 21
-9.847139975619
 31
0.0
1001
TCAD
1000
TCW_CUSTOM_DATA
1002
{
1000
#$AUX@_ToolInfo Properties
1070
           8
1000
Insert^JLine^JPerpendicular@Line Perpendicular
1002
}
  0
LINE
  5
19D
100
AcDbEntity
  8
Exterior View
370
           0
  6
Continuous
 62
           7
100
AcDbLine
 10
-5.82809501462
 20
-9.900139975619
 30
0.0
 11
-5.81884501462
 21
-9.900139975619
 31
0.0
1001
TCAD
1000
TCW_CUSTOM_DATA
1002
{
1000
#$AUX@_ToolInfo Properties
1070
           8
1000
Insert^JLine^JPerpendicular@Line Perpendicular
1002
}
  0
ARC
  5
19E
100
AcDbEntity
  8
Exterior View
370
           0
  6
Continuous
 62
           7
100
AcDbCircle
 10
-5.817623167773
 20
-9.873639975619
 30
0.0
 40
0.026528153153
100
AcDbArc
 50
-92.639891387842
 51
92.639891387842
1001
TCAD
1000
TCW_CUSTOM_DATA
1002
{
1000
#$AUX@_ToolInfo Properties
1070
           8
1000
Insert^JArc^JTriplePoint132@Arc TriplePoint132
1002
}
  0
LINE
  5
19F
100
AcDbEntity
  8
Exterior View
370
           0
  6
Continuous
 62
           7
100
AcDbLine
 10
-5.82809501462
 20
-10.078139975619
 30
0.0
 11
-5.81884501462
 21
-10.078139975619
 31
0.0
1001
TCAD
1000
TCW_CUSTOM_DATA
1002
{
1000
#$AUX@_ToolInfo Properties
1070
           8
1000
Insert^JLine^JPerpendicular@Line Perpendicular
1002
}
  0
LINE
  5
1A0
100
AcDbEntity
  8
Exterior View
370
           0
  6
Continuous
 62
           7
100
AcDbLine
 10
-5.82809501462
 20
-10.131139975619
 30
0.0
 11
-5.81884501462
 21
-10.131139975619
 31
0.0
1001
TCAD
1000
TCW_CUSTOM_DATA
1002
{
1000
#$AUX@_ToolInfo Properties
1070
           8
1000
Insert^JLine^JPerpendicular@Line Perpendicular
1002
}
  0
ARC
  5
1A1
100
AcDbEntity
  8
Exterior View
370
           0
  6
Continuous
 62
           7
100
AcDbCircle
 10
-5.817623167773
 20
-10.104639975619
 30
0.0
 40
0.026528153153
100
AcDbArc
 50
-92.639891387842
 51
92.639891387843
1001
TCAD
1000
TCW_CUSTOM_DATA
1002
{
1000
#$AUX@_ToolInfo Properties
1070
           8
1000
Insert^JArc^JTriplePoint132@Arc TriplePoint132
1002
}
  0
ARC
  5
1A2
100
AcDbEntity
  8
Exterior View
370
           0
  6
Continuous
 62
           7
100
AcDbCircle
 10
-5.82809501462
 20
-0.061139975619
 30
0.0
 40
0.0625
100
AcDbArc
 50
0.0
 51
90.0
1001
TCAD
1000
TCW_CUSTOM_DATA
1002
{
1000
#$AUX@_ToolInfo Properties
1070
           8
1000
Insert^JArc^JCenterAndPoint@Arc CenterAndPoint
1002
}
  0
LINE
  5
1A3
100
AcDbEntity
  8
Exterior View
370
           0
  6
Continuous
 62
           7
100
AcDbLine
 10
-6.65622001462
 20
-5.954920694246
 30
0.0
 11
-6.65622001462
 21
-0.497756306088
 31
0.0
1001
TCAD
1000
TCW_CUSTOM_DATA
1002
{
1000
#$AUX@_ToolInfo Properties
1070
           8
1000
Insert^JLine^JPerpendicular@Line Perpendicular
1002
}
  0
LINE
  5
1A4
100
AcDbEntity
  8
Exterior View
370
           0
  6
Continuous
 62
           7
100
AcDbLine
 10
-6.370920011317
 20
1.269137671385
 30
0.0
 11
-6.953276926945
 21
1.269137671385
 31
0.0
1001
TCAD
1000
TCW_CUSTOM_DATA
1002
{
1000
#$AUX@_ToolInfo Properties
1070
           8
1000
Insert^JLine^JSingle@Line Single
1002
}
  0
LINE
  5
1A5
100
AcDbEntity
  8
Exterior View
370
           0
  6
Continuous
 62
           7
100
AcDbLine
 10
-5.70309501462
 20
0.001360151627
 30
0.0
 11
-0.124970014617
 21
0.001365829979
 31
0.0
1001
TCAD
1000
TCW_CUSTOM_DATA
1002
{
1000
#$AUX@_ToolInfo Properties
1070
           8
1000
Insert^JLine^JSingle@Line Single
1002
}
  0
LINE
  5
1A6
100
AcDbEntity
  8
Exterior View
370
           0
  6
Continuous
 62
           7
100
AcDbLine
 10
-6.826590883175
 20
0.796338919425
 30
0.0
 11
-7.648852168539
 21
3.8650598135
 31
0.0
1001
TCAD
1000
TCW_CUSTOM_DATA
1002
{
1000
#$AUX@_ToolInfo Properties
1070
           8
1000
Insert^JLine^JPerpendicular@Line Perpendicular
1002
}
  0
ARC
  5
1A7
100
AcDbEntity
  8
Exterior View
370
           0
  6
Continuous
 62
           7
100
AcDbCircle
 10
-11.65622001462
 20
-0.497756306088
 30
0.0
 40
5.0
100
AcDbArc
 50
0.0
 51
15.000000000001
  0
LINE
  5
1A8
100
AcDbEntity
  8
Exterior View
370
           0
  6
Continuous
 62
           7
100
AcDbLine
 10
-5.910479286334
 20
0.033712405018
 30
0.0
 11
-4.220109090328
 21
0.486645733948
 31
0.0
1001
TCAD
1000
TCW_CUSTOM_DATA
1002
{
1000
#$AUX@_ToolInfo Properties
1070
           8
1000
Insert^JLine^JPerpendicular@Line Perpendicular
1002
}
  0
LINE
  5
1A9
100
AcDbEntity
  8
Exterior View
370
           0
  6
Continuous
 62
           7
100
AcDbLine
 10
-0.687470014617
 20
1.269143595997
 30
0.0
 11
-6.245934075464
 21
1.269137801689
 31
0.0
1001
TCAD
1000
TCW_CUSTOM_DATA
1002
{
1000
#$AUX@_ToolInfo Properties
1070
           8
1000
Insert^JLine^JSingle@Line Single
1002
}
  0
LINE
  5
1AA
100
AcDbEntity
  8
Exterior View
370
           0
  6
Continuous
 62
           7
100
AcDbLine
 10
-6.250179283031
 20
1.301490052023
 30
0.0
 11
-5.103142364316
 21
1.608837668082
 31
0.0
1001
TCAD
1000
TCW_CUSTOM_DATA
1002
{
1000
#$AUX@_ToolInfo Properties
1070
           8
1000
Insert^JLine^JPerpendicular@Line Perpendicular
1002
}
  0
LINE
  5
1AB
100
AcDbEntity
  8
Exterior View
370
           0
  6
Continuous
 62
           7
100
AcDbLine
 10
-6.945755466744
 20
3.897415710175
 30
0.0
 11
-5.436496363168
 21
4.301820468147
 31
0.0
1001
TCAD
1000
TCW_CUSTOM_DATA
1002
{
1000
#$AUX@_ToolInfo Properties
1070
           8
1000
Insert^JLine^JPerpendicular@Line Perpendicular
1002
}
  0
LINE
  5
1AC
100
AcDbEntity
  8
Exterior View
370
           0
  6
Continuous
 62
           7
100
AcDbLine
 10
-7.066509317058
 20
3.8650598135
 30
0.0
 11
-7.648852168539
 21
3.8650598135
 31
0.0
1001
TCAD
1000
TCW_CUSTOM_DATA
1002
{
1000
#$AUX@_ToolInfo Properties
1070
           8
1000
Insert^JLine^JPerpendicular@Line Perpendicular
1002
}
  0
LINE
  5
1AD
100
AcDbEntity
  8
Exterior View
370
           0
  6
Continuous
 62
           7
100
AcDbLine
 10
-7.78122001462
 20
-18.309272647409
 30
0.0
 11
-7.78122001462
 21
-7.307002422545
 31
0.0
1001
TCAD
1000
TCW_CUSTOM_DATA
1002
{
1000
#$AUX@_ToolInfo Properties
1070
           8
1000
Insert^JLine^JPerpendicular@Line Perpendicular
1002
}
  0
LINE
  5
1AE
100
AcDbEntity
  8
Exterior View
370
           0
  6
Continuous
 62
           7
100
AcDbLine
 10
-6.03122001462
 20
-10.43613997562
 30
0.0
 11
-5.82809501462
 21
-10.43613997562
 31
0.0
1001
TCAD
1000
TCW_CUSTOM_DATA
1002
{
1000
#$AUX@_ToolInfo Properties
1070
           8
1000
Insert^JLine^JPerpendicular@Line Perpendicular
1002
}
  0
LINE
  5
1AF
100
AcDbEntity
  8
Exterior View
370
           0
  6
Continuous
 62
           7
100
AcDbLine
 10
-5.680491356084
 20
-13.924002356816
 30
0.0
 11
-5.680491356084
 21
-14.174002356816
 31
0.0
1001
TCAD
1000
TCW_CUSTOM_DATA
1002
{
1000
#$AUX@_ToolInfo Properties
1070
           8
1000
Insert^JLine^JPerpendicular@Line Perpendicular
1002
}
  0
LINE
  5
1B0
100
AcDbEntity
  8
Exterior View
370
           0
  6
Continuous
 62
           7
100
AcDbLine
 10
-6.941509317058
 20
3.865059971699
 30
0.0
 11
-0.312470014616
 21
3.865068361336
 31
0.0
1001
TCAD
1000
TCW_CUSTOM_DATA
1002
{
1000
#$AUX@_ToolInfo Properties
1070
           8
1000
Insert^JLine^JSingle@Line Single
1002
}
  0
LINE
  5
1B1
100
AcDbEntity
  8
Exterior View
370
           0
  6
Continuous
 62
           7
100
AcDbLine
 10
-5.843768250128
 20
-14.174002356816
 30
0.0
 11
-5.843768250128
 21
-13.924002356816
 31
0.0
1001
TCAD
1000
TCW_CUSTOM_DATA
1002
{
1000
#$AUX@_ToolInfo Properties
1070
           8
1000
Insert^JLine^JSingle@Line Single
1002
}
  0
LINE
  5
1B2
100
AcDbEntity
  8
Exterior View
370
           0
  6
Continuous
 62
           7
100
AcDbLine
 10
-4.099368362042
 20
0.518998114586
 30
0.0
 11
-3.012701807467
 21
0.810169540326
 31
0.0
1001
TCAD
1000
TCW_CUSTOM_DATA
1002
{
1000
#$AUX@_ToolInfo Properties
1070
           8
1000
Insert^JLine^JSingle@Line Single
1002
}
  0
LINE
  5
1B3
100
AcDbEntity
  8
Exterior View
370
           0
  6
Continuous
 62
           7
100
AcDbLine
 10
-4.099368362042
 20
0.518998114586
 30
0.0
 11
-3.012701807467
 21
0.810169540326
 31
0.0
1001
TCAD
1000
TCW_CUSTOM_DATA
1002
{
1000
#$AUX@_ToolInfo Properties
1070
           8
1000
Insert^JLine^JSingle@Line Single
1002
}
  0
POINT
  5
1B4
100
AcDbEntity
  8
Exterior View
  6
Continuous
 62
           7
100
AcDbPoint
 10
-4.68558518979
 20
2.156821918334
 30
0.0
1001
TCAD
1000
TCW_CUSTOM_DATA
1002
{
1000
#$AUX@_ToolInfo Properties
1070
           8
1000
Insert^JPoint^JCross@Point Cross
1002
}
1000
TC25ExternalObject
1002
{
1000
TCW30POINT
1000

1070
           0
1071
        0
1040
1.0
1040
0.0
1000
Continuous
1000
Exterior View
1070
          21
1071
        1
1071
      242
1010
-4.68558518979
1020
2.156821918334
1030
0.0
1070
           3
1071
-2147483645
1070
           1
1000
#$AUX@_ToolInfo Properties
1070
           8
1000
Insert^JPoint^JCross@Point Cross
1000
$POINTSIZE
1070
           5
1040
0.25
1000
$POINTTYPE
1070
          18
1070
           3
1000
ExplodeScale
1070
           5
1040
1.0
1002
}
  0
CIRCLE
  5
1B5
100
AcDbEntity
  8
Exterior View
370
           0
  6
Continuous
 62
           7
100
AcDbCircle
 10
-4.68558518979
 20
2.156821918334
 30
0.0
 40
0.125
1001
TCAD
1000
TCW_CUSTOM_DATA
1002
{
1000
#$AUX@_ToolInfo Properties
1070
           8
1000
Insert^JCircle^JCenterAndPoint@Circle CenterAndPoint
1002
}
  0
LINE
  5
1B6
100
AcDbEntity
  8
Exterior View
370
           0
  6
Continuous
 62
           7
100
AcDbLine
 10
-5.008003767837
 20
2.578304804144
 30
0.0
 11
-4.448008714274
 21
2.631331118226
 31
0.0
1001
TCAD
1000
TCW_CUSTOM_DATA
1002
{
1000
#$AUX@_ToolInfo Properties
1070
           8
1000
Insert^JLine^JSingle@Line Single
1002
}
  0
LINE
  5
1B7
100
AcDbEntity
  8
Exterior View
370
           0
  6
Continuous
 62
           7
100
AcDbLine
 10
-4.965582716572
 20
2.130308761294
 30
0.0
 11
-5.008003767837
 21
2.578304804144
 31
0.0
1001
TCAD
1000
TCW_CUSTOM_DATA
1002
{
1000
#$AUX@_ToolInfo Properties
1070
           8
1000
Insert^JLine^JSingle@Line Single
1002
}
  0
CIRCLE
  5
1B8
100
AcDbEntity
  8
Exterior View
370
           0
  6
Continuous
 62
           7
100
AcDbCircle
 10
-4.293695944153
 20
1.996174525642
 30
0.0
 40
0.05
1001
TCAD
1000
TCW_CUSTOM_DATA
1002
{
1000
#$AUX@_ToolInfo Properties
1070
           8
1000
Insert^JCircle^JCenterAndPoint@Circle CenterAndPoint
1002
}
  0
ARC
  5
1B9
100
AcDbEntity
  8
Exterior View
370
           0
  6
Continuous
 62
           7
100
AcDbCircle
 10
-4.293695944153
 20
1.996174525642
 30
0.0
 40
0.084375
100
AcDbArc
 50
-84.590752057265
 51
53.636853606412
1001
TCAD
1000
TCW_CUSTOM_DATA
1002
{
1000
#$AUX@_ToolInfo Properties
1070
           8
1000
Insert^JArc^JCenterAndPoint@Arc CenterAndPoint
1002
}
  0
LINE
  5
1BA
100
AcDbEntity
  8
Exterior View
370
           0
  6
Continuous
 62
           7
100
AcDbLine
 10
-4.285741997041
 20
1.912175267607
 30
0.0
 11
-4.65907203275
 21
1.876824391553
 31
0.0
1001
TCAD
1000
TCW_CUSTOM_DATA
1002
{
1000
#$AUX@_ToolInfo Properties
1070
           8
1000
Insert^JLine^JSingle@Line Single
1002
}
  0
ARC
  5
1BB
100
AcDbEntity
  8
Exterior View
370
           0
  6
Continuous
 62
           7
100
AcDbCircle
 10
-4.68558518979
 20
2.156821918334
 30
0.0
 40
0.28125
100
AcDbArc
 50
-174.590752057268
 51
5.409240164483
  0
LINE
  5
1BC
100
AcDbEntity
  8
Exterior View
370
           0
  6
Continuous
 62
           7
100
AcDbLine
 10
-4.448008714274
 20
2.631331118226
 30
0.0
 11
-4.405587659409
 21
2.183335037364
 31
0.0
1001
TCAD
1000
TCW_CUSTOM_DATA
1002
{
1000
#$AUX@_ToolInfo Properties
1070
           8
1000
Insert^JLine^JPerpendicular@Line Perpendicular
1002
}
  0
LINE
  5
1BD
100
AcDbEntity
  8
Exterior View
370
           0
  6
Continuous
 62
           7
100
AcDbLine
 10
-4.243669909287
 20
2.064119624512
 30
0.0
 11
-4.405587659409
 21
2.183335037364
 31
0.0
1001
TCAD
1000
TCW_CUSTOM_DATA
1002
{
1000
#$AUX@_ToolInfo Properties
1070
           8
1000
Insert^JLine^JTanFromArc@Line TanFromArc
1002
}
  0
ARC
  5
1BE
100
AcDbEntity
  8
Exterior View
370
           0
  6
Continuous
 62
           7
100
AcDbCircle
 10
-5.522648844099
 20
2.37784908443
 30
0.0
 40
0.34375
100
AcDbArc
 50
95.409242610917
 51
275.409247942733
  0
ARC
  5
1BF
100
AcDbEntity
  8
Exterior View
370
           0
  6
Continuous
 62
           7
100
AcDbCircle
 10
-5.470916663425
 20
2.163019136605
 30
0.0
 40
0.125
100
AcDbArc
 50
-84.590752057268
 51
5.409247942732
1001
TCAD
1000
TCW_CUSTOM_DATA
1002
{
1000
#$AUX@_ToolInfo Properties
1070
           8
1000
Insert^JArc^JTanToTwoEntities@Arc TanToTwoEntities
1002
}
  0
ARC
  5
1C0
100
AcDbEntity
  8
Exterior View
370
           0
  6
Continuous
 62
           7
100
AcDbCircle
 10
-5.512159352155
 20
2.598570844932
 30
0.0
 40
0.125
100
AcDbArc
 50
5.409247942728
 51
95.409247942726
1001
TCAD
1000
TCW_CUSTOM_DATA
1002
{
1000
#$AUX@_ToolInfo Properties
1070
           8
1000
Insert^JArc^JTanToTwoEntities@Arc TanToTwoEntities
1002
}
  0
LINE
  5
1C1
100
AcDbEntity
  8
Exterior View
370
           0
  6
Continuous
 62
           7
100
AcDbLine
 10
-5.459133022339
 20
2.038575792858
 30
0.0
 11
-5.490243874383
 21
2.03562988503
 31
0.0
  0
LINE
  5
1C2
100
AcDbEntity
  8
Exterior View
370
           0
  6
Continuous
 62
           7
100
AcDbLine
 10
-5.387716007095
 20
2.610354472137
 30
0.0
 11
-5.346473317838
 21
2.174802758247
 31
0.0
1001
TCAD
1000
TCW_CUSTOM_DATA
1002
{
1000
#$AUX@_ToolInfo Properties
1070
           8
1000
Insert^JLine^JSingle@Line Single
1002
}
  0
LINE
  5
1C3
100
AcDbEntity
  8
Exterior View
370
           0
  6
Continuous
 62
           7
100
AcDbLine
 10
-4.981981001494
 20
2.303486146937
 30
0.0
 11
-5.355311037202
 21
2.268135270883
 31
0.0
1001
TCAD
1000
TCW_CUSTOM_DATA
1002
{
1000
#$AUX@_ToolInfo Properties
1070
           8
1000
Insert^JLine^JPerpendicular@Line Perpendicular
1002
}
  0
LINE
  5
1C4
100
AcDbEntity
  8
Exterior View
370
           0
  6
Continuous
 62
           7
100
AcDbLine
 10
-5.005548252196
 20
2.55237283741
 30
0.0
 11
-5.378878287905
 21
2.517021961356
 31
0.0
1001
TCAD
1000
TCW_CUSTOM_DATA
1002
{
1000
#$AUX@_ToolInfo Properties
1070
           8
1000
Insert^JLine^JPerpendicular@Line Perpendicular
1002
}
  0
POINT
  5
1C5
100
AcDbEntity
  8
Exterior View
  6
Continuous
 62
           7
100
AcDbPoint
 10
-4.834198951735
 20
3.388289066831
 30
0.0
1001
TCAD
1000
TCW_CUSTOM_DATA
1002
{
1000
#$AUX@_ToolInfo Properties
1070
           8
1000
Insert^JPoint^JCross@Point Cross
1002
}
1000
TC25ExternalObject
1002
{
1000
TCW30POINT
1000

1070
           0
1071
        0
1040
1.0
1040
0.0
1000
Continuous
1000
Exterior View
1070
          21
1071
        1
1071
      242
1010
-4.834198951735
1020
3.388289066831
1030
0.0
1070
           3
1071
-2147483645
1070
           1
1000
#$AUX@_ToolInfo Properties
1070
           8
1000
Insert^JPoint^JCross@Point Cross
1000
$POINTSIZE
1070
           5
1040
0.25
1000
$POINTTYPE
1070
          18
1070
           3
1000
ExplodeScale
1070
           5
1040
1.0
1002
}
  0
CIRCLE
  5
1C6
100
AcDbEntity
  8
Exterior View
370
           0
  6
Continuous
 62
           7
100
AcDbCircle
 10
-4.834198951735
 20
3.388289066831
 30
0.0
 40
0.125000000001
1001
TCAD
1000
TCW_CUSTOM_DATA
1002
{
1000
#$AUX@_ToolInfo Properties
1070
           8
1000
Insert^JCircle^JCenterAndPoint@Circle CenterAndPoint
1002
}
  0
LINE
  5
1C7
100
AcDbEntity
  8
Exterior View
370
           0
  6
Continuous
 62
           7
100
AcDbLine
 10
-5.17781370685
 20
3.792678065902
 30
0.0
 11
-4.621275980092
 21
3.874360430572
 31
0.0
1001
TCAD
1000
TCW_CUSTOM_DATA
1002
{
1000
#$AUX@_ToolInfo Properties
1070
           8
1000
Insert^JLine^JSingle@Line Single
1002
}
  0
LINE
  5
1C8
100
AcDbEntity
  8
Exterior View
370
           0
  6
Continuous
 62
           7
100
AcDbLine
 10
-5.112467815113
 20
3.347447884496
 30
0.0
 11
-5.17781370685
 21
3.792678065902
 31
0.0
1001
TCAD
1000
TCW_CUSTOM_DATA
1002
{
1000
#$AUX@_ToolInfo Properties
1070
           8
1000
Insert^JLine^JSingle@Line Single
1002
}
  0
CIRCLE
  5
1C9
100
AcDbEntity
  8
Exterior View
370
           0
  6
Continuous
 62
           7
100
AcDbCircle
 10
-4.434584972928
 20
3.247955772246
 30
0.0
 40
0.05
1001
TCAD
1000
TCW_CUSTOM_DATA
1002
{
1000
#$AUX@_ToolInfo Properties
1070
           8
1000
Insert^JCircle^JCenterAndPoint@Circle CenterAndPoint
1002
}
  0
ARC
  5
1CA
100
AcDbEntity
  8
Exterior View
370
           0
  6
Continuous
 62
           7
100
AcDbCircle
 10
-4.434584972928
 20
3.247955772246
 30
0.0
 40
0.084375
100
AcDbArc
 50
-81.650380890764
 51
56.577224772919
1001
TCAD
1000
TCW_CUSTOM_DATA
1002
{
1000
#$AUX@_ToolInfo Properties
1070
           8
1000
Insert^JArc^JCenterAndPoint@Arc CenterAndPoint
1002
}
  0
LINE
  5
1CB
100
AcDbEntity
  8
Exterior View
370
           0
  6
Continuous
 62
           7
100
AcDbLine
 10
-4.422332618228
 20
3.164475113232
 30
0.0
 11
-4.793357769399
 21
3.110020203452
 31
0.0
1001
TCAD
1000
TCW_CUSTOM_DATA
1002
{
1000
#$AUX@_ToolInfo Properties
1070
           8
1000
Insert^JLine^JSingle@Line Single
1002
}
  0
ARC
  5
1CC
100
AcDbEntity
  8
Exterior View
370
           0
  6
Continuous
 62
           7
100
AcDbCircle
 10
-4.834198951735
 20
3.388289066831
 30
0.0
 40
0.281250000001
100
AcDbArc
 50
-171.65038089076
 51
8.34961133099
  0
LINE
  5
1CD
100
AcDbEntity
  8
Exterior View
370
           0
  6
Continuous
 62
           7
100
AcDbLine
 10
-4.621275980092
 20
3.874360430572
 30
0.0
 11
-4.555930082811
 21
3.429130211389
 31
0.0
1001
TCAD
1000
TCW_CUSTOM_DATA
1002
{
1000
#$AUX@_ToolInfo Properties
1070
           8
1000
Insert^JLine^JPerpendicular@Line Perpendicular
1002
}
  0
LINE
  5
1CE
100
AcDbEntity
  8
Exterior View
370
           0
  6
Continuous
 62
           7
100
AcDbLine
 10
-4.388110154217
 20
3.318377585989
 30
0.0
 11
-4.555930082811
 21
3.429130211389
 31
0.0
1001
TCAD
1000
TCW_CUSTOM_DATA
1002
{
1000
#$AUX@_ToolInfo Properties
1070
           8
1000
Insert^JLine^JTanFromArc@Line TanFromArc
1002
}
  0
ARC
  5
1CF
100
AcDbEntity
  8
Exterior View
370
           0
  6
Continuous
 62
           7
100
AcDbCircle
 10
-5.681498528928
 20
3.56608669339
 30
0.0
 40
0.343750000001
100
AcDbArc
 50
98.349613777426
 51
278.349619109235
  0
ARC
  5
1D0
100
AcDbEntity
  8
Exterior View
370
           0
  6
Continuous
 62
           7
100
AcDbCircle
 10
-5.618814402292
 20
3.354193264355
 30
0.0
 40
0.125000000001
100
AcDbArc
 50
-81.650380890763
 51
8.349619109234
1001
TCAD
1000
TCW_CUSTOM_DATA
1002
{
1000
#$AUX@_ToolInfo Properties
1070
           8
1000
Insert^JArc^JTanToTwoEntities@Arc TanToTwoEntities
1002
}
  0
ARC
  5
1D1
100
AcDbEntity
  8
Exterior View
370
           0
  6
Continuous
 62
           7
100
AcDbCircle
 10
-5.682345130369
 20
3.787055940722
 30
0.0
 40
0.125000000001
100
AcDbArc
 50
8.349619109243
 51
98.349619109229
1001
TCAD
1000
TCW_CUSTOM_DATA
1002
{
1000
#$AUX@_ToolInfo Properties
1070
           8
1000
Insert^JArc^JTanToTwoEntities@Arc TanToTwoEntities
1002
}
  0
LINE
  5
1D2
100
AcDbEntity
  8
Exterior View
370
           0
  6
Continuous
 62
           7
100
AcDbLine
 10
-5.600662750061
 20
3.230518216259
 30
0.0
 11
-5.631581528296
 21
3.225980304816
 31
0.0
  0
LINE
  5
1D3
100
AcDbEntity
  8
Exterior View
370
           0
  6
Continuous
 62
           7
100
AcDbLine
 10
-5.558670080249
 20
3.805207579158
 30
0.0
 11
-5.49513935136
 21
3.372344897263
 31
0.0
1001
TCAD
1000
TCW_CUSTOM_DATA
1002
{
1000
#$AUX@_ToolInfo Properties
1070
           8
1000
Insert^JLine^JSingle@Line Single
1002
}
  0
LINE
  5
1D4
100
AcDbEntity
  8
Exterior View
370
           0
  6
Continuous
 62
           7
100
AcDbLine
 10
-5.700496766962
 20
3.910730991112
 30
0.0
 11
-5.73141549791
 21
3.906193086609
 31
0.0
  0
LINE
  5
1D5
100
AcDbEntity
  8
Exterior View
370
           0
  6
Continuous
 62
           7
100
AcDbLine
 10
-5.137727928175
 20
3.519556098521
 30
0.0
 11
-5.508753079346
 21
3.465101188741
 31
0.0
1001
TCAD
1000
TCW_CUSTOM_DATA
1002
{
1000
#$AUX@_ToolInfo Properties
1070
           8
1000
Insert^JLine^JPerpendicular@Line Perpendicular
1002
}
  0
LINE
  5
1D6
100
AcDbEntity
  8
Exterior View
370
           0
  6
Continuous
 62
           7
100
AcDbLine
 10
-5.174031201361
 20
3.766906199303
 30
0.0
 11
-5.545056352533
 21
3.712451289522
 31
0.0
1001
TCAD
1000
TCW_CUSTOM_DATA
1002
{
1000
#$AUX@_ToolInfo Properties
1070
           8
1000
Insert^JLine^JPerpendicular@Line Perpendicular
1002
}
  0
ARC
  5
1D7
100
AcDbEntity
  8
Exterior View
370
           0
  6
Continuous
 62
           7
100
AcDbCircle
 10
-6.647161579009
 20
-0.57729824827
 30
0.0
 40
2.773646695531
100
AcDbArc
 50
23.281848080873
 51
53.115332946554
1001
TCAD
1000
TCW_CUSTOM_DATA
1002
{
1000
#$AUX@_ToolInfo Properties
1070
           8
1000
Insert^JArc^JTriplePoint132@Arc TriplePoint132
1002
}
  0
POINT
  5
1D8
100
AcDbEntity
  8
Exterior View
  6
Continuous
 62
           7
100
AcDbPoint
 10
-3.323935044385
 20
2.521674975169
 30
0.0
1001
TCAD
1000
TCW_CUSTOM_DATA
1002
{
1000
#$AUX@_ToolInfo Properties
1070
           8
1000
Insert^JPoint^JCross@Point Cross
1002
}
1000
TC25ExternalObject
1002
{
1000
TCW30POINT
1000

1070
           0
1071
        0
1040
1.0
1040
0.0
1000
Continuous
1000
Exterior View
1070
          21
1071
        1
1071
      242
1010
-3.323935044385
1020
2.521674975169
1030
0.0
1070
           3
1071
-2147483645
1070
           1
1000
#$AUX@_ToolInfo Properties
1070
           8
1000
Insert^JPoint^JCross@Point Cross
1000
$POINTSIZE
1070
           5
1040
0.25
1000
$POINTTYPE
1070
          18
1070
           3
1000
ExplodeScale
1070
           5
1040
1.0
1002
}
  0
CIRCLE
  5
1D9
100
AcDbEntity
  8
Exterior View
370
           0
  6
Continuous
 62
           7
100
AcDbCircle
 10
-3.323935044385
 20
2.521674975169
 30
0.0
 40
0.125
1001
TCAD
1000
TCW_CUSTOM_DATA
1002
{
1000
#$AUX@_ToolInfo Properties
1070
           8
1000
Insert^JCircle^JCenterAndPoint@Circle CenterAndPoint
1002
}
  0
LINE
  5
1DA
100
AcDbEntity
  8
Exterior View
370
           0
  6
Continuous
 62
           7
100
AcDbLine
 10
-3.25545380805
 20
3.047899150565
 30
0.0
 11
-3.76693690747
 21
2.813823758847
 31
0.0
1001
TCAD
1000
TCW_CUSTOM_DATA
1002
{
1000
#$AUX@_ToolInfo Properties
1070
           8
1000
Insert^JLine^JSingle@Line Single
1002
}
  0
LINE
  5
1DB
100
AcDbEntity
  8
Exterior View
370
           0
  6
Continuous
 62
           7
100
AcDbLine
 10
-3.068193494675
 20
2.638712671029
 30
0.0
 11
-3.25545380805
 21
3.047899150565
 31
0.0
1001
TCAD
1000
TCW_CUSTOM_DATA
1002
{
1000
#$AUX@_ToolInfo Properties
1070
           8
1000
Insert^JLine^JSingle@Line Single
1002
}
  0
CIRCLE
  5
1DC
100
AcDbEntity
  8
Exterior View
370
           0
  6
Continuous
 62
           7
100
AcDbCircle
 10
-3.582997390231
 20
2.186605629227
 30
0.0
 40
0.05
1001
TCAD
1000
TCW_CUSTOM_DATA
1002
{
1000
#$AUX@_ToolInfo Properties
1070
           8
1000
Insert^JCircle^JCenterAndPoint@Circle CenterAndPoint
1002
}
  0
ARC
  5
1DD
100
AcDbEntity
  8
Exterior View
370
           0
  6
Continuous
 62
           7
100
AcDbCircle
 10
-3.582997390231
 20
2.186605629227
 30
0.0
 40
0.084375
100
AcDbArc
 50
156.363146393592
 51
294.590752057266
1001
TCAD
1000
TCW_CUSTOM_DATA
1002
{
1000
#$AUX@_ToolInfo Properties
1070
           8
1000
Insert^JArc^JCenterAndPoint@Arc CenterAndPoint
1002
}
  0
LINE
  5
1DE
100
AcDbEntity
  8
Exterior View
370
           0
  6
Continuous
 62
           7
100
AcDbLine
 10
-3.547886081473
 20
2.109883164314
 30
0.0
 11
-3.206897348526
 21
2.265933425459
 31
0.0
1001
TCAD
1000
TCW_CUSTOM_DATA
1002
{
1000
#$AUX@_ToolInfo Properties
1070
           8
1000
Insert^JLine^JSingle@Line Single
1002
}
  0
ARC
  5
1DF
100
AcDbEntity
  8
Exterior View
370
           0
  6
Continuous
 62
           7
100
AcDbCircle
 10
-3.323935044385
 20
2.521674975169
 30
0.0
 40
0.28125
100
AcDbArc
 50
-155.409240164482
 51
24.590752057268
  0
LINE
  5
1E0
100
AcDbEntity
  8
Exterior View
370
           0
  6
Continuous
 62
           7
100
AcDbLine
 10
-3.76693690747
 20
2.813823758847
 30
0.0
 11
-3.579676578207
 21
2.404637244592
 31
0.0
1001
TCAD
1000
TCW_CUSTOM_DATA
1002
{
1000
#$AUX@_ToolInfo Properties
1070
           8
1000
Insert^JLine^JPerpendicular@Line Perpendicular
1002
}
  0
LINE
  5
1E1
100
AcDbEntity
  8
Exterior View
370
           0
  6
Continuous
 62
           7
100
AcDbLine
 10
-3.660293756711
 20
2.220434793479
 30
0.0
 11
-3.579676578207
 21
2.404637244592
 31
0.0
1001
TCAD
1000
TCW_CUSTOM_DATA
1002
{
1000
#$AUX@_ToolInfo Properties
1070
           8
1000
Insert^JLine^JTanFromArc@Line TanFromArc
1002
}
  0
ARC
  5
1E2
100
AcDbEntity
  8
Exterior View
370
           0
  6
Continuous
 62
           7
100
AcDbCircle
 10
-2.709530238217
 20
3.131621943089
 30
0.0
 40
0.34375
100
AcDbArc
 50
-65.409247942733
 51
114.590757389085
  0
ARC
  5
1E3
100
AcDbEntity
  8
Exterior View
370
           0
  6
Continuous
 62
           7
100
AcDbCircle
 10
-2.646916646961
 20
2.919707660442
 30
0.0
 40
0.125
100
AcDbArc
 50
-155.409247942731
 51
-65.409247942729
1001
TCAD
1000
TCW_CUSTOM_DATA
1002
{
1000
#$AUX@_ToolInfo Properties
1070
           8
1000
Insert^JArc^JTanToTwoEntities@Arc TanToTwoEntities
1002
}
  0
ARC
  5
1E4
100
AcDbEntity
  8
Exterior View
370
           0
  6
Continuous
 62
           7
100
AcDbCircle
 10
-2.828975284964
 20
3.317527848879
 30
0.0
 40
0.125
100
AcDbArc
 50
114.590752057271
 51
204.590752057273
1001
TCAD
1000
TCW_CUSTOM_DATA
1002
{
1000
#$AUX@_ToolInfo Properties
1070
           8
1000
Insert^JArc^JTanToTwoEntities@Arc TanToTwoEntities
1002
}
  0
LINE
  5
1E5
100
AcDbEntity
  8
Exterior View
370
           0
  6
Continuous
 62
           7
100
AcDbLine
 10
-2.594899907618
 20
2.806044742882
 30
0.0
 11
-2.566484165501
 21
2.819048937888
 31
0.0
  0
LINE
  5
1E6
100
AcDbEntity
  8
Exterior View
370
           0
  6
Continuous
 62
           7
100
AcDbLine
 10
-2.942638196722
 20
3.265511096858
 30
0.0
 11
-2.760579556393
 21
2.867690903339
 31
0.0
1001
TCAD
1000
TCW_CUSTOM_DATA
1002
{
1000
#$AUX@_ToolInfo Properties
1070
           8
1000
Insert^JLine^JSingle@Line Single
1002
}
  0
LINE
  5
1E7
100
AcDbEntity
  8
Exterior View
370
           0
  6
Continuous
 62
           7
100
AcDbLine
 10
-3.140580856177
 20
2.796887828818
 30
0.0
 11
-2.79959212323
 21
2.952938089963
 31
0.0
1001
TCAD
1000
TCW_CUSTOM_DATA
1002
{
1000
#$AUX@_ToolInfo Properties
1070
           8
1000
Insert^JLine^JPerpendicular@Line Perpendicular
1002
}
  0
LINE
  5
1E8
100
AcDbEntity
  8
Exterior View
370
           0
  6
Continuous
 62
           7
100
AcDbLine
 10
-3.244614363607
 20
3.024213650782
 30
0.0
 11
-2.90362563066
 21
3.180263911928
 31
0.0
1001
TCAD
1000
TCW_CUSTOM_DATA
1002
{
1000
#$AUX@_ToolInfo Properties
1070
           8
1000
Insert^JLine^JPerpendicular@Line Perpendicular
1002
}
  0
POINT
  5
1E9
100
AcDbEntity
  8
Exterior View
  6
Continuous
 62
           7
100
AcDbPoint
 10
-3.810965325438
 20
3.662463690665
 30
0.0
1001
TCAD
1000
TCW_CUSTOM_DATA
1002
{
1000
#$AUX@_ToolInfo Properties
1070
           8
1000
Insert^JPoint^JCross@Point Cross
1002
}
1000
TC25ExternalObject
1002
{
1000
TCW30POINT
1000

1070
           0
1071
        0
1040
1.0
1040
0.0
1000
Continuous
1000
Exterior View
1070
          21
1071
        1
1071
      242
1010
-3.810965325438
1020
3.662463690665
1030
0.0
1070
           3
1071
-2147483645
1070
           1
1000
#$AUX@_ToolInfo Properties
1070
           8
1000
Insert^JPoint^JCross@Point Cross
1000
$POINTSIZE
1070
           5
1040
0.25
1000
$POINTTYPE
1070
          18
1070
           3
1000
ExplodeScale
1070
           5
1040
1.0
1002
}
  0
CIRCLE
  5
1EA
100
AcDbEntity
  8
Exterior View
370
           0
  6
Continuous
 62
           7
100
AcDbCircle
 10
-3.810965325438
 20
3.662463690665
 30
0.0
 40
0.125000000001
1001
TCAD
1000
TCW_CUSTOM_DATA
1002
{
1000
#$AUX@_ToolInfo Properties
1070
           8
1000
Insert^JCircle^JCenterAndPoint@Circle CenterAndPoint
1002
}
  0
LINE
  5
1EB
100
AcDbEntity
  8
Exterior View
370
           0
  6
Continuous
 62
           7
100
AcDbLine
 10
-3.715580717929
 20
4.184482214429
 30
0.0
 11
-4.2383977098
 21
3.976952353896
 31
0.0
1001
TCAD
1000
TCW_CUSTOM_DATA
1002
{
1000
#$AUX@_ToolInfo Properties
1070
           8
1000
Insert^JLine^JSingle@Line Single
1002
}
  0
LINE
  5
1EC
100
AcDbEntity
  8
Exterior View
370
           0
  6
Continuous
 62
           7
100
AcDbLine
 10
-3.549556829502
 20
3.766228620932
 30
0.0
 11
-3.715580717929
 21
4.184482214429
 31
0.0
1001
TCAD
1000
TCW_CUSTOM_DATA
1002
{
1000
#$AUX@_ToolInfo Properties
1070
           8
1000
Insert^JLine^JSingle@Line Single
1002
}
  0
CIRCLE
  5
1ED
100
AcDbEntity
  8
Exterior View
370
           0
  6
Continuous
 62
           7
100
AcDbCircle
 10
-4.086874535499
 20
3.341124503155
 30
0.0
 40
0.05
1001
TCAD
1000
TCW_CUSTOM_DATA
1002
{
1000
#$AUX@_ToolInfo Properties
1070
           8
1000
Insert^JCircle^JCenterAndPoint@Circle CenterAndPoint
1002
}
  0
ARC
  5
1EE
100
AcDbEntity
  8
Exterior View
370
           0
  6
Continuous
 62
           7
100
AcDbCircle
 10
-4.086874535499
 20
3.341124503155
 30
0.0
 40
0.084375
100
AcDbArc
 50
153.42277522708
 51
291.650380890769
1001
TCAD
1000
TCW_CUSTOM_DATA
1002
{
1000
#$AUX@_ToolInfo Properties
1070
           8
1000
Insert^JArc^JCenterAndPoint@Arc CenterAndPoint
1002
}
  0
LINE
  5
1EF
100
AcDbEntity
  8
Exterior View
370
           0
  6
Continuous
 62
           7
100
AcDbLine
 10
-4.055745056419
 20
3.262701954374
 30
0.0
 11
-3.707200395172
 21
3.40105519473
 31
0.0
1001
TCAD
1000
TCW_CUSTOM_DATA
1002
{
1000
#$AUX@_ToolInfo Properties
1070
           8
1000
Insert^JLine^JSingle@Line Single
1002
}
  0
ARC
  5
1F0
100
AcDbEntity
  8
Exterior View
370
           0
  6
Continuous
 62
           7
100
AcDbCircle
 10
-3.810965325438
 20
3.662463690665
 30
0.0
 40
0.281250000001
100
AcDbArc
 50
-158.349611330988
 51
21.650380890761
  0
LINE
  5
1F1
100
AcDbEntity
  8
Exterior View
370
           0
  6
Continuous
 62
           7
100
AcDbLine
 10
-4.2383977098
 20
3.976952353896
 30
0.0
 11
-4.072373807287
 21
3.558698724911
 31
0.0
1001
TCAD
1000
TCW_CUSTOM_DATA
1002
{
1000
#$AUX@_ToolInfo Properties
1070
           8
1000
Insert^JLine^JPerpendicular@Line Perpendicular
1002
}
  0
LINE
  5
1F2
100
AcDbEntity
  8
Exterior View
370
           0
  6
Continuous
 62
           7
100
AcDbLine
 10
-4.162333816011
 20
3.378874173481
 30
0.0
 11
-4.072373807287
 21
3.558698724911
 31
0.0
1001
TCAD
1000
TCW_CUSTOM_DATA
1002
{
1000
#$AUX@_ToolInfo Properties
1070
           8
1000
Insert^JLine^JTanFromArc@Line TanFromArc
1002
}
  0
ARC
  5
1F3
100
AcDbEntity
  8
Exterior View
370
           0
  6
Continuous
 62
           7
100
AcDbCircle
 10
-3.166081180252
 20
4.240090740595
 30
0.0
 40
0.343750000001
100
AcDbArc
 50
-68.349619109236
 51
111.650386222573
  0
ARC
  5
1F4
100
AcDbEntity
  8
Exterior View
370
           0
  6
Continuous
 62
           7
100
AcDbCircle
 10
-3.114420511816
 20
4.025243584837
 30
0.0
 40
0.125000000001
100
AcDbArc
 50
-158.349619109235
 51
-68.349619109234
1001
TCAD
1000
TCW_CUSTOM_DATA
1002
{
1000
#$AUX@_ToolInfo Properties
1070
           8
1000
Insert^JArc^JTanToTwoEntities@Arc TanToTwoEntities
1002
}
  0
ARC
  5
1F5
100
AcDbEntity
  8
Exterior View
370
           0
  6
Continuous
 62
           7
100
AcDbCircle
 10
-3.275832625564
 20
4.43187902296
 30
0.0
 40
0.125000000001
100
AcDbArc
 50
111.650380890766
 51
201.650380890765
1001
TCAD
1000
TCW_CUSTOM_DATA
1002
{
1000
#$AUX@_ToolInfo Properties
1070
           8
1000
Insert^JArc^JTanToTwoEntities@Arc TanToTwoEntities
1002
}
  0
LINE
  5
1F6
100
AcDbEntity
  8
Exterior View
370
           0
  6
Continuous
 62
           7
100
AcDbLine
 10
-3.068302779721
 20
3.909062025257
 30
0.0
 11
-3.039257376593
 21
3.920591467785
 31
0.0
  0
LINE
  5
1F7
100
AcDbEntity
  8
Exterior View
370
           0
  6
Continuous
 62
           7
100
AcDbLine
 10
-3.39201418
 20
4.385761277906
 30
0.0
 11
-3.230602064191
 21
3.97912583459
 31
0.0
1001
TCAD
1000
TCW_CUSTOM_DATA
1002
{
1000
#$AUX@_ToolInfo Properties
1070
           8
1000
Insert^JLine^JSingle@Line Single
1002
}
  0
LINE
  5
1F8
100
AcDbEntity
  8
Exterior View
370
           0
  6
Continuous
 62
           7
100
AcDbLine
 10
-3.321950372349
 20
4.548060576709
 30
0.0
 11
-3.292905013643
 21
4.559590001603
 31
0.0
  0
LINE
  5
1F9
100
AcDbEntity
  8
Exterior View
370
           0
  6
Continuous
 62
           7
100
AcDbLine
 10
-3.613735036902
 20
3.927908763009
 30
0.0
 11
-3.265190375654
 21
4.066262003364
 31
0.0
1001
TCAD
1000
TCW_CUSTOM_DATA
1002
{
1000
#$AUX@_ToolInfo Properties
1070
           8
1000
Insert^JLine^JPerpendicular@Line Perpendicular
1002
}
  0
LINE
  5
1FA
100
AcDbEntity
  8
Exterior View
370
           0
  6
Continuous
 62
           7
100
AcDbLine
 10
-3.705970530472
 20
4.160271870507
 30
0.0
 11
-3.357425869224
 21
4.298625110863
 31
0.0
1001
TCAD
1000
TCW_CUSTOM_DATA
1002
{
1000
#$AUX@_ToolInfo Properties
1070
           8
1000
Insert^JLine^JPerpendicular@Line Perpendicular
1002
}
  0
ARC
  5
1FB
100
AcDbEntity
  8
Exterior View
370
           0
  6
Continuous
 62
           7
100
AcDbCircle
 10
-24.736458862949
 20
0.563034872575
 30
0.0
 40
19.783457622677
100
AcDbArc
 50
3.124042394103
 51
10.989013984635
1001
TCAD
1000
TCW_CUSTOM_DATA
1002
{
1000
#$AUX@_ToolInfo Properties
1070
           8
1000
Insert^JArc^JTriplePoint132@Arc TriplePoint132
1002
}
  0
ARC
  5
1FC
100
AcDbEntity
  8
Exterior View
370
           0
  6
Continuous
 62
           7
100
AcDbCircle
 10
-0.258099976557
 20
1.1346456485
 30
0.0
 40
2.773646695531
100
AcDbArc
 50
156.884667053446
 51
186.718151919127
1001
TCAD
1000
TCW_CUSTOM_DATA
1002
{
1000
#$AUX@_ToolInfo Properties
1070
           8
1000
Insert^JArc^JTriplePoint132@Arc TriplePoint132
1002
}
  0
ARC
  5
1FD
100
AcDbEntity
  8
Exterior View
370
           0
  6
Continuous
 62
           7
100
AcDbCircle
 10
14.837524447522
 20
11.166851741898
 30
0.0
 40
19.783457622677
100
AcDbArc
 50
-160.989013984635
 51
-153.124042394103
1001
TCAD
1000
TCW_CUSTOM_DATA
1002
{
1000
#$AUX@_ToolInfo Properties
1070
           8
1000
Insert^JArc^JTriplePoint132@Arc TriplePoint132
1002
}
  0
ARC
  5
1FE
100
AcDbEntity
  8
Exterior View
370
           0
  6
Continuous
 62
           7
100
AcDbCircle
 10
-5.545706493982
 20
8.090138617059
 30
0.0
 40
3.762998305879
100
AcDbArc
 50
-86.496563017582
 51
-63.503436982427
1001
TCAD
1000
TCW_CUSTOM_DATA
1002
{
1000
#$AUX@_ToolInfo Properties
1070
           8
1000
Insert^JArc^JTriplePoint132@Arc TriplePoint132
1002
}
  0
LINE
  5
1FF
100
AcDbEntity
  8
Exterior View
370
           0
  6
Continuous
 62
           7
100
AcDbLine
 10
-3.556035084754
 20
0.664583827456
 30
0.0
 11
-4.571770865732
 21
4.455361369129
 31
0.0
1001
TCAD
1000
TCW_CUSTOM_DATA
1002
{
1000
#$AUX@_ToolInfo Properties
1070
           8
1000
Insert^JLine^JPerpendicular@Line Perpendicular
1002
}
  0
LINE
  5
200
100
AcDbEntity
  8
Exterior View
370
           0
  6
Continuous
 62
           7
100
AcDbLine
 10
-5.843768250128
 20
-13.995480527485
 30
0.0
 11
-5.680491356084
 21
-13.995480527485
 31
0.0
1001
TCAD
1000
TCW_CUSTOM_DATA
1002
{
1000
#$AUX@_ToolInfo Properties
1070
           8
1000
Insert^JLine^JPerpendicular@Line Perpendicular
1002
}
  0
LINE
  5
201
100
AcDbEntity
  8
Exterior View
370
           0
  6
Continuous
 62
           7
100
AcDbLine
 10
-5.76559619227
 20
-0.060756302704
 30
0.0
 11
-5.680491356084
 21
-13.924002356816
 31
0.0
1001
TCAD
1000
TCW_CUSTOM_DATA
1002
{
1000
#$AUX@_ToolInfo Properties
1070
           8
1000
Insert^JLine^JTanFromArc@Line TanFromArc
1002
}
  0
LINE
  5
202
100
AcDbEntity
  8
Exterior View
370
           0
  6
Continuous
 62
           7
100
AcDbLine
 10
-6.03122001462
 20
-13.924002356816
 30
0.0
 11
-5.680491356084
 21
-13.924002356816
 31
0.0
1001
TCAD
1000
TCW_CUSTOM_DATA
1002
{
1000
#$AUX@_ToolInfo Properties
1070
           8
1000
Insert^JLine^JPerpendicular@Line Perpendicular
1002
}
  0
LINE
  5
203
100
AcDbEntity
  8
Exterior View
370
           0
  6
Continuous
 62
           7
100
AcDbLine
 10
-6.03122001462
 20
-14.174002356816
 30
0.0
 11
-5.680491356084
 21
-14.174002356816
 31
0.0
1001
TCAD
1000
TCW_CUSTOM_DATA
1002
{
1000
#$AUX@_ToolInfo Properties
1070
           8
1000
Insert^JLine^JPerpendicular@Line Perpendicular
1002
}
  0
LINE
  5
204
100
AcDbEntity
  8
Exterior View
370
           0
  6
Continuous
 62
           7
100
AcDbLine
 10
-7.90622001462
 20
-18.309272647409
 30
0.0
 11
-6.03122001462
 21
-18.309272647409
 31
0.0
1001
TCAD
1000
TCW_CUSTOM_DATA
1002
{
1000
#$AUX@_ToolInfo Properties
1070
           8
1000
Insert^JLine^JPerpendicular@Line Perpendicular
1002
}
  0
LINE
  5
205
100
AcDbEntity
  8
Exterior View
370
           0
  6
Continuous
 62
           7
100
AcDbLine
 10
-6.03122001462
 20
-18.032683565762
 30
0.0
 11
-5.680491356084
 21
-13.995480527485
 31
0.0
1001
TCAD
1000
TCW_CUSTOM_DATA
1002
{
1000
#$AUX@_ToolInfo Properties
1070
           8
1000
Insert^JLine^JSingle@Line Single
1002
}
  0
LINE
  5
206
100
AcDbEntity
  8
Exterior View
370
           0
  6
Continuous
 62
           7
100
AcDbLine
 10
-7.781220014621
 20
-7.817639975619
 30
0.0
 11
-6.031220014621
 21
-7.817639975619
 31
0.0
1001
TCAD
1000
TCW_CUSTOM_DATA
1002
{
1000
#$AUX@_ToolInfo Properties
1070
           8
1000
Insert^JLine^JPerpendicular@Line Perpendicular
1002
}
  0
ARC
  5
207
100
AcDbEntity
  8
Exterior View
370
           0
  6
Continuous
 62
           7
100
AcDbCircle
 10
-7.84372001462
 20
-7.380139975619
 30
0.0
 40
0.0625
100
AcDbArc
 50
90.0
 51
180.0
  0
ARC
  5
208
100
AcDbEntity
  8
Exterior View
370
           0
  6
Continuous
 62
           7
100
AcDbCircle
 10
10.19264175857
 20
-7.82705102108
 30
0.0
 40
0.38222485467
100
AcDbArc
 50
127.951097844358
 51
178.58913496799
  0
ARC
  5
209
100
AcDbEntity
  8
Exterior View
370
           0
  6
Continuous
 62
           7
100
AcDbCircle
 10
10.93241821219
 20
-7.82705102108
 30
0.0
 40
0.38222485467
100
AcDbArc
 50
1.41086503201
 51
52.048902155642
  0
ARC
  5
20A
100
AcDbEntity
  8
Exterior View
370
           0
  6
Continuous
 62
           7
100
AcDbCircle
 10
10.56252998538
 20
-8.301320171114
 30
0.0
 40
0.983680195495
100
AcDbArc
 50
52.048902155642
 51
127.951097844358
  0
ARC
  5
20B
100
AcDbEntity
  8
Exterior View
370
           0
  6
Continuous
 62
           7
100
AcDbCircle
 10
7.991636412987
 20
-0.668716383726
 30
0.0
 40
2.417938725857
100
AcDbArc
 50
24.903721571587
 51
53.268753315782
1001
TCAD
1000
TCW_CUSTOM_DATA
1002
{
1000
#$AUX@_ToolInfo Properties
1070
           8
1000
Insert^JArc^JTriplePoint132@Arc TriplePoint132
1002
}
  0
ARC
  5
20C
100
AcDbEntity
  8
Exterior View
370
           0
  6
Continuous
 62
           7
100
AcDbCircle
 10
13.13379246453
 20
-0.668716383727
 30
0.0
 40
2.417938725857
100
AcDbArc
 50
126.731246684216
 51
155.096278428411
1001
TCAD
1000
TCW_CUSTOM_DATA
1002
{
1000
#$AUX@_ToolInfo Properties
1070
           8
1000
Insert^JArc^JTriplePoint132@Arc TriplePoint132
1002
}
  0
LINE
  5
20D
100
AcDbEntity
  8
Exterior View
370
           0
  6
Continuous
 62
           7
100
AcDbLine
 10
2.34375027539
 20
-33.255225125325
 30
0.0
 11
-1.21869030463
 21
-33.255225125325
 31
0.0
1001
TCAD
1000
TCW_CUSTOM_DATA
1002
{
1000
#$AUX@_ToolInfo Properties
1070
           8
1000
Insert^JLine^JPerpendicular@Line Perpendicular
1002
}
  0
CIRCLE
  5
20E
100
AcDbEntity
  8
Exterior View
370
           0
  6
Continuous
 62
           7
100
AcDbCircle
 10
0.562537591603
 20
-3.294639975619
 30
0.0
 40
0.07874015748
1001
TCAD
1000
TCW_CUSTOM_DATA
1002
{
1000
#$AUX@_ToolInfo Properties
1070
           8
1000
Insert^JCircle^JCenterAndPoint@Circle CenterAndPoint
1002
}
  0
CIRCLE
  5
20F
100
AcDbEntity
  8
Exterior View
370
           0
  6
Continuous
 62
           7
100
AcDbCircle
 10
0.562533788491
 20
-4.463139975619
 30
0.0
 40
0.07874015748
1001
TCAD
1000
TCW_CUSTOM_DATA
1002
{
1000
#$AUX@_ToolInfo Properties
1070
           8
1000
Insert^JCircle^JCenterAndPoint@Circle CenterAndPoint
1002
}
  0
CIRCLE
  5
210
100
AcDbEntity
  8
Exterior View
370
           0
  6
Continuous
 62
           7
100
AcDbCircle
 10
0.562533788491
 20
-5.980139975619
 30
0.0
 40
0.07874015748
1001
TCAD
1000
TCW_CUSTOM_DATA
1002
{
1000
#$AUX@_ToolInfo Properties
1070
           8
1000
Insert^JCircle^JCenterAndPoint@Circle CenterAndPoint
1002
}
  0
CIRCLE
  5
211
100
AcDbEntity
  8
Exterior View
370
           0
  6
Continuous
 62
           7
100
AcDbCircle
 10
0.927223777026
 20
-6.854639975619
 30
0.0
 40
0.07874015748
1001
TCAD
1000
TCW_CUSTOM_DATA
1002
{
1000
#$AUX@_ToolInfo Properties
1070
           8
1000
Insert^JCircle^JCenterAndPoint@Circle CenterAndPoint
1002
}
  0
CIRCLE
  5
212
100
AcDbEntity
  8
Exterior View
370
           0
  6
Continuous
 62
           7
100
AcDbCircle
 10
0.197836193734
 20
-6.854639975619
 30
0.0
 40
0.07874015748
1001
TCAD
1000
TCW_CUSTOM_DATA
1002
{
1000
#$AUX@_ToolInfo Properties
1070
           8
1000
Insert^JCircle^JCenterAndPoint@Circle CenterAndPoint
1002
}
  0
CIRCLE
  5
213
100
AcDbEntity
  8
Exterior View
370
           0
  6
Continuous
 62
           7
100
AcDbCircle
 10
0.562529626283
 20
-7.991139975619
 30
0.0
 40
0.07874015748
1001
TCAD
1000
TCW_CUSTOM_DATA
1002
{
1000
#$AUX@_ToolInfo Properties
1070
           8
1000
Insert^JCircle^JCenterAndPoint@Circle CenterAndPoint
1002
}
  0
LINE
  5
214
100
AcDbEntity
  8
Exterior View
370
           0
  6
Continuous
 62
           7
100
AcDbLine
 10
-1.16722476344
 20
-33.517248183154
 30
0.0
 11
3.20015282499
 21
-40.080732889395
 31
0.0
1001
TCAD
1000
TCW_CUSTOM_DATA
1002
{
1000
#$AUX@_ToolInfo Properties
1070
           8
1000
Insert^JLine^JSingle@Line Single
1002
}
  0
LINE
  5
215
100
AcDbEntity
  8
Exterior View
370
           0
  6
Continuous
 62
           7
100
AcDbLine
 10
-1.350631122601
 20
-33.69290269211
 30
0.0
 11
3.001702044519
 21
-40.233777988657
 31
0.0
1001
TCAD
1000
TCW_CUSTOM_DATA
1002
{
1000
#$AUX@_ToolInfo Properties
1070
           8
1000
Insert^JLine^JPerpendicular@Line Perpendicular
1002
}
  0
LINE
  5
216
100
AcDbEntity
  8
Exterior View
370
           0
  6
Continuous
 62
           7
100
AcDbLine
 10
2.2922847342
 20
-33.517248183154
 30
0.0
 11
0.56252998538
 21
-36.11679873942
 31
0.0
  0
LINE
  5
217
100
AcDbEntity
  8
Exterior View
370
           0
  6
Continuous
 62
           7
100
AcDbLine
 10
0.412386084136
 20
-36.342441514655
 30
0.0
 11
-2.07509285423
 21
-40.080732889395
 31
0.0
  0
LINE
  5
218
100
AcDbEntity
  8
Exterior View
370
           0
  6
Continuous
 62
           7
100
AcDbLine
 10
2.475691093361
 20
-33.69290269211
 30
0.0
 11
0.712673886624
 21
-36.342441514655
 31
0.0
  0
LINE
  5
219
100
AcDbEntity
  8
Exterior View
370
           0
  6
Continuous
 62
           7
100
AcDbLine
 10
0.56252998538
 20
-36.568084289889
 30
0.0
 11
-1.876642073759
 21
-40.233777988657
 31
0.0
  0
ARC
  5
21A
100
AcDbEntity
  8
Exterior View
370
           0
  6
Continuous
 62
           7
100
AcDbCircle
 10
-0.62497001462
 20
-40.608207361445
 30
0.0
 40
0.0625
100
AcDbArc
 50
89.999983711039
 51
179.999983711039
1001
TCAD
1000
TCW_CUSTOM_DATA
1002
{
1000
#$AUX@_ToolInfo Properties
1070
           8
1000
Insert^JArc^JTanToEntities@Arc TanToEntities
1002
}
  0
ARC
  5
21B
100
AcDbEntity
  8
Exterior View
370
           0
  6
Continuous
 62
           7
100
AcDbCircle
 10
1.75002998538
 20
-40.608207361445
 30
0.0
 40
0.0625
100
AcDbArc
 50
0.0
 51
90.0
1001
TCAD
1000
TCW_CUSTOM_DATA
1002
{
1000
#$AUX@_ToolInfo Properties
1070
           8
1000
Insert^JArc^JTanToEntities@Arc TanToEntities
1002
}
  0
LINE
  5
21C
100
AcDbEntity
  8
Exterior View
370
           0
  6
Continuous
 62
           7
100
AcDbLine
 10
0.56253160224
 20
-40.545707361445
 30
0.0
 11
-0.624970032389
 21
-40.545707361445
 31
0.0
1001
TCAD
1000
TCW_CUSTOM_DATA
1002
{
1000
#$AUX@_ToolInfo Properties
1070
           8
1000
Insert^JLine^JPerpendicular@Line Perpendicular
1002
}
  0
LINE
  5
21D
100
AcDbEntity
  8
Exterior View
370
           0
  6
Continuous
 62
           7
100
AcDbLine
 10
-0.68747001462
 20
-40.608207343676
 30
0.0
 11
-0.68747001462
 21
-41.005606206519
 31
0.0
1001
TCAD
1000
TCW_CUSTOM_DATA
1002
{
1000
#$AUX@_ToolInfo Properties
1070
           8
1000
Insert^JLine^JPerpendicular@Line Perpendicular
1002
}
  0
LINE
  5
21E
100
AcDbEntity
  8
Exterior View
370
           0
  6
Continuous
 62
           7
100
AcDbLine
 10
0.56253160224
 20
-40.545707361445
 30
0.0
 11
1.75002998538
 21
-40.545707361445
 31
0.0
1001
TCAD
1000
TCW_CUSTOM_DATA
1002
{
1000
#$AUX@_ToolInfo Properties
1070
           8
1000
Insert^JLine^JPerpendicular@Line Perpendicular
1002
}
  0
LINE
  5
21F
100
AcDbEntity
  8
Exterior View
370
           0
  6
Continuous
 62
           7
100
AcDbLine
 10
1.81252998538
 20
-40.608207361445
 30
0.0
 11
1.81252998538
 21
-41.005607075909
 31
0.0
1001
TCAD
1000
TCW_CUSTOM_DATA
1002
{
1000
#$AUX@_ToolInfo Properties
1070
           8
1000
Insert^JLine^JPerpendicular@Line Perpendicular
1002
}
  0
LINE
  5
220
100
AcDbEntity
  8
Exterior View
370
           0
  6
Continuous
 62
           7
100
AcDbLine
 10
0.37502998538
 20
-32.255225125325
 30
0.0
 11
0.75002998538
 21
-32.255225125325
 31
0.0
1001
TCAD
1000
TCW_CUSTOM_DATA
1002
{
1000
#$AUX@_ToolInfo Properties
1070
           8
1000
Insert^JLine^JPerpendicular@Line Perpendicular
1002
}
  0
LINE
  5
221
100
AcDbEntity
  8
Exterior View
370
           0
  6
Continuous
 62
           7
100
AcDbLine
 10
0.37502998538
 20
-32.255225125325
 30
0.0
 11
0.37502998538
 21
-30.755225125325
 31
0.0
1001
TCAD
1000
TCW_CUSTOM_DATA
1002
{
1000
#$AUX@_ToolInfo Properties
1070
           8
1000
Insert^JLine^JPerpendicular@Line Perpendicular
1002
}
  0
LINE
  5
222
100
AcDbEntity
  8
Exterior View
370
           0
  6
Continuous
 62
           7
100
AcDbLine
 10
0.75002998538
 20
-32.255225125325
 30
0.0
 11
0.75002998538
 21
-30.755225125325
 31
0.0
1001
TCAD
1000
TCW_CUSTOM_DATA
1002
{
1000
#$AUX@_ToolInfo Properties
1070
           8
1000
Insert^JLine^JPerpendicular@Line Perpendicular
1002
}
  0
LINE
  5
223
100
AcDbEntity
  8
Exterior View
370
           0
  6
Continuous
 62
           7
100
AcDbLine
 10
10.00002998538
 20
-23.061225125325
 30
0.0
 11
10.00002998538
 21
-22.936216138561
 31
0.0
1001
TCAD
1000
TCW_CUSTOM_DATA
1002
{
1000
#$AUX@_ToolInfo Properties
1070
           8
1000
Insert^JLine^JPerpendicular@Line Perpendicular
1002
}
  0
LINE
  5
224
100
AcDbEntity
  8
Exterior View
370
           0
  6
Continuous
 62
           7
100
AcDbLine
 10
11.12502998538
 20
-23.061225125325
 30
0.0
 11
11.12502998538
 21
-22.936216138561
 31
0.0
1001
TCAD
1000
TCW_CUSTOM_DATA
1002
{
1000
#$AUX@_ToolInfo Properties
1070
           8
1000
Insert^JLine^JPerpendicular@Line Perpendicular
1002
}
  0
LINE
  5
225
100
AcDbEntity
  8
Exterior View
370
           0
  6
Continuous
 62
           7
100
AcDbLine
 10
9.810532779677
 20
-30.755225125325
 30
0.0
 11
10.00002998538
 21
-23.061225125325
 31
0.0
1001
TCAD
1000
TCW_CUSTOM_DATA
1002
{
1000
#$AUX@_ToolInfo Properties
1070
           8
1000
Insert^JLine^JSingle@Line Single
1002
}
  0
LINE
  5
226
100
AcDbEntity
  8
Exterior View
370
           0
  6
Continuous
 62
           7
100
AcDbLine
 10
11.314527191083
 20
-30.755225125325
 30
0.0
 11
11.12502998538
 21
-23.061225125325
 31
0.0
1001
TCAD
1000
TCW_CUSTOM_DATA
1002
{
1000
#$AUX@_ToolInfo Properties
1070
           8
1000
Insert^JLine^JSingle@Line Single
1002
}
  0
ARC
  5
227
100
AcDbEntity
  8
Exterior View
370
           0
  6
Continuous
 62
           7
100
AcDbCircle
 10
7.95527105635
 20
-23.084778224272
 30
0.0
 40
2.050148719278
100
AcDbArc
 50
4.155526641438
 51
43.697218462947
1001
TCAD
1000
TCW_CUSTOM_DATA
1002
{
1000
#$AUX@_ToolInfo Properties
1070
           8
1000
Insert^JArc^JTriplePoint132@Arc TriplePoint132
1002
}
  0
ARC
  5
228
100
AcDbEntity
  8
Exterior View
370
           0
  6
Continuous
 62
           7
100
AcDbCircle
 10
13.16978891441
 20
-23.084778224272
 30
0.0
 40
2.050148719278
100
AcDbArc
 50
136.302781537053
 51
175.844473358562
1001
TCAD
1000
TCW_CUSTOM_DATA
1002
{
1000
#$AUX@_ToolInfo Properties
1070
           8
1000
Insert^JArc^JTriplePoint132@Arc TriplePoint132
1002
}
  0
ELLIPSE
  5
229
100
AcDbEntity
  8
Exterior View
370
           0
  6
Continuous
 62
           7
100
AcDbEllipse
 10
-9.922471157259
 20
-17.73585665878
 30
0.0
 11
19.783457622677084
 21
0.0
 31
0.0
210
0.0
220
0.0
230
1.0
 40
0.965925826289
 41
-0.2072745620501642
 42
-0.0700049122195689
1001
TCAD
1000
TCW_CUSTOM_DATA
1002
{
1000
#$AUX@_ToolInfo Properties
1070
           8
1000
Insert^JArc^JTriplePoint132@Arc TriplePoint132
1002
}
  0
ELLIPSE
  5
22A
100
AcDbEntity
  8
Exterior View
370
           0
  6
Continuous
 62
           7
100
AcDbEllipse
 10
31.047531128019
 20
-17.73585665878
 30
0.0
 11
19.783457622677076
 21
0.0
 31
0.0
210
0.0
220
0.0
230
1.0
 40
0.965925826289
 41
-3.0715877413702262
 42
-2.9343180915396316
1001
TCAD
1000
TCW_CUSTOM_DATA
1002
{
1000
#$AUX@_ToolInfo Properties
1070
           8
1000
Insert^JArc^JTriplePoint132@Arc TriplePoint132
1002
}
  0
ELLIPSE
  5
22B
100
AcDbEntity
  8
Exterior View
370
           0
  6
Continuous
 62
           7
100
AcDbEllipse
 10
10.56252998538
 20
-15.510661348957
 30
0.0
 11
3.762998305879091
 21
0.0
 31
0.0
210
0.0
220
0.0
230
1.0
 40
0.965925826289
 41
-1.7714492041147285
 42
-1.3701434494752267
1001
TCAD
1000
TCW_CUSTOM_DATA
1002
{
1000
#$AUX@_ToolInfo Properties
1070
           8
1000
Insert^JArc^JTriplePoint132@Arc TriplePoint132
1002
}
  0
ELLIPSE
  5
22C
100
AcDbEntity
  8
Exterior View
370
           0
  6
Continuous
 62
           7
100
AcDbEllipse
 10
2.532323925161
 20
-30.636506232962
 30
0.0
 11
7.2804159947619098
 21
0.0
 31
0.0
210
0.0
220
0.0
230
1.0
 40
0.6622846562
 41
-0.6287160263137147
 42
-0.0246242401308669
  0
ELLIPSE
  5
22D
100
AcDbEntity
  8
Exterior View
370
           0
  6
Continuous
 62
           7
100
AcDbEllipse
 10
21.327988830082
 20
-40.454959331408
 30
0.0
 11
15.959016834854683
 21
0.0
 31
0.0
210
0.0
220
0.0
230
1.0
 40
0.743987541825
 41
2.5128766272760772
 42
2.7362776711528309
  0
ELLIPSE
  5
22E
100
AcDbEntity
  8
Exterior View
370
           0
  6
Continuous
 62
           7
100
AcDbEllipse
 10
10.62581095369
 20
-37.292033548272
 30
0.0
 11
4.3132809683101065
 21
0.0
 31
0.0
210
0.0
220
0.0
230
1.0
 40
0.893022003762
 41
2.7362776703144815
 42
3.1415926535897931
  0
ELLIPSE
  5
22F
100
AcDbEntity
  8
Exterior View
370
           0
  6
Continuous
 62
           7
100
AcDbEllipse
 10
9.977701244258
 20
-37.292033548272
 30
0.0
 11
0.0000000000000002
 21
-3.8518548131081332
 31
0.0
210
0.0
220
0.0
230
1.0
 40
0.951534114527
 41
4.7123889803846897
 42
5.8716756428097545
  0
ELLIPSE
  5
230
100
AcDbEntity
  8
Exterior View
370
           0
  6
Continuous
 62
           7
100
AcDbEllipse
 10
11.147358726501
 20
-37.292033548272
 30
0.0
 11
0.0000000000000002
 21
-3.851854813108134
 31
0.0
210
0.0
220
0.0
230
1.0
 40
0.951534114527
 41
0.4115096643697831
 42
1.5707963267948966
  0
ELLIPSE
  5
231
100
AcDbEntity
  8
Exterior View
370
           0
  6
Continuous
 62
           7
100
AcDbEllipse
 10
10.563102102841
 20
-35.560115030877
 30
0.0
 11
0.0000000000000003
 21
-5.686742766237491
 31
0.0
210
0.0
220
0.0
230
1.0
 40
0.951534114527
 41
-0.3888413403893722
 42
0.3888461240679622
  0
ELLIPSE
  5
232
100
AcDbEntity
  8
Exterior View
370
           0
  6
Continuous
 62
           7
100
AcDbEllipse
 10
10.49924901707
 20
-37.292033548272
 30
0.0
 11
4.3132809683101119
 21
0.0
 31
0.0
210
0.0
220
0.0
230
1.0
 40
0.893022003762
 41
0.0
 42
0.4053149832753136
  0
ELLIPSE
  5
233
100
AcDbEntity
  8
Exterior View
370
           0
  6
Continuous
 62
           7
100
AcDbEllipse
 10
18.592736045599
 20
-30.636506232962
 30
0.0
 11
7.2804159947619098
 21
0.0
 31
0.0
210
0.0
220
0.0
230
1.0
 40
0.6622846562
 41
-3.1169684134589248
 42
-2.5128766272760781
  0
ELLIPSE
  5
234
100
AcDbEntity
  8
Exterior View
370
           0
  6
Continuous
 62
           7
100
AcDbEllipse
 10
-0.202928859322
 20
-40.454959331408
 30
0.0
 11
15.959016834854669
 21
0.0
 31
0.0
210
0.0
220
0.0
230
1.0
 40
0.743987541825
 41
0.4053149824369621
 42
0.6287160263137155
  0
ARC
  5
235
100
AcDbEntity
  8
Exterior View
370
           0
  6
Continuous
 62
           7
100
AcDbCircle
 10
10.19264175857
 20
-30.764636170786
 30
0.0
 40
0.38222485467
100
AcDbArc
 50
127.951097844358
 51
178.58913496799
  0
ARC
  5
236
100
AcDbEntity
  8
Exterior View
370
           0
  6
Continuous
 62
           7
100
AcDbCircle
 10
10.93241821219
 20
-30.764636170786
 30
0.0
 40
0.38222485467
100
AcDbArc
 50
1.41086503201
 51
52.048902155642
  0
ARC
  5
237
100
AcDbEntity
  8
Exterior View
370
           0
  6
Continuous
 62
           7
100
AcDbCircle
 10
10.56252998538
 20
-31.23890532082
 30
0.0
 40
0.983680195495
100
AcDbArc
 50
52.048902155642
 51
127.951097844358
  0
ARC
  5
238
100
AcDbEntity
  8
Exterior View
370
           0
  6
Continuous
 62
           7
100
AcDbCircle
 10
7.991636412987
 20
-23.606301533432
 30
0.0
 40
2.417938725857
100
AcDbArc
 50
24.903721571587
 51
53.268753315782
1001
TCAD
1000
TCW_CUSTOM_DATA
1002
{
1000
#$AUX@_ToolInfo Properties
1070
           8
1000
Insert^JArc^JTriplePoint132@Arc TriplePoint132
1002
}
  0
ARC
  5
239
100
AcDbEntity
  8
Exterior View
370
           0
  6
Continuous
 62
           7
100
AcDbCircle
 10
13.13379246453
 20
-23.606301533432
 30
0.0
 40
2.417938725857
100
AcDbArc
 50
126.731246684216
 51
155.096278428411
1001
TCAD
1000
TCW_CUSTOM_DATA
1002
{
1000
#$AUX@_ToolInfo Properties
1070
           8
1000
Insert^JArc^JTriplePoint132@Arc TriplePoint132
1002
}
  0
LWPOLYLINE
  5
23A
100
AcDbEntity
  8
Exterior View
370
           0
  6
Continuous
 62
           7
100
AcDbPolyline
 90
        9
 70
           0
 10
6.74850652619
 20
-35.824753917781
 10
6.670994192498
 20
-35.99847880734
 10
6.600923291691
 20
-36.182969084353
 10
6.542021373578
 20
-36.369317538494
 10
6.494297307207
 20
-36.556771782233
 10
6.457697464637
 20
-36.744476306658
 10
6.43208887162
 20
-36.931363719967
 10
6.417218277757
 20
-37.115810604968
 10
6.412495138409
 20
-37.29467327928
  0
LWPOLYLINE
  5
23B
100
AcDbEntity
  8
Exterior View
370
           0
  6
Continuous
 62
           7
100
AcDbPolyline
 90
       13
 70
           0
 10
9.910301394276
 20
-30.762023914992
 10
9.896641622027
 20
-30.962473792065
 10
9.867437638692
 20
-31.182250529963
 10
9.820944692612
 20
-31.411872540376
 10
9.755805799305
 20
-31.647882109267
 10
9.671017563847
 20
-31.88789918364
 10
9.565835876636
 20
-32.130039156798
 10
9.439725502065
 20
-32.372687806889
 10
9.29232920519
 20
-32.614396384392
 10
9.123447238897
 20
-32.853826468578
 10
8.933023135279
 20
-33.089718396523
 10
8.721133718209
 20
-33.320872105172
 10
8.490086290263
 20
-33.544102160947
  0
LWPOLYLINE
  5
23C
100
AcDbEntity
  8
Exterior View
370
           0
  6
Continuous
 62
           7
100
AcDbPolyline
 90
       13
 70
           0
 10
11.214758576484
 20
-30.762023914992
 10
11.228418348733
 20
-30.962473792065
 10
11.257622332068
 20
-31.182250529962
 10
11.304115278148
 20
-31.411872540376
 10
11.369254171455
 20
-31.647882109267
 10
11.454042406913
 20
-31.88789918364
 10
11.559224094124
 20
-32.130039156797
 10
11.685334468695
 20
-32.372687806888
 10
11.83273076557
 20
-32.614396384392
 10
12.001612731863
 20
-32.853826468578
 10
12.192036835481
 20
-33.089718396523
 10
12.403926252551
 20
-33.320872105172
 10
12.633080854318
 20
-33.542273377579
  0
LWPOLYLINE
  5
23D
100
AcDbEntity
  8
Exterior View
370
           0
  6
Continuous
 62
           7
100
AcDbPolyline
 90
       21
 70
           0
 10
6.412488435592
 20
-37.289151148008
 10
6.419131977321
 20
-37.519541820537
 10
6.438253068114
 20
-37.74155126334
 10
6.469580787214
 20
-37.960288839365
 10
6.512854381167
 20
-38.175616873378
 10
6.567820732726
 20
-38.387106335941
 10
6.634212687967
 20
-38.594228782324
 10
6.711740906377
 20
-38.796417676021
 10
6.800090266546
 20
-38.993094617079
 10
6.898918336232
 20
-39.18368300639
 10
7.007854945046
 20
-39.367616261185
 10
7.126502419319
 20
-39.544343326742
 10
7.254436251477
 20
-39.713332696683
 10
7.391206074386
 20
-39.874075532283
 10
7.536336860449
 20
-40.026088190423
 10
7.689330291823
 20
-40.16891433233
 10
7.849666263221
 20
-40.302126713733
 10
8.016804487778
 20
-40.425328718006
 10
8.190186182208
 20
-40.538155671952
 10
8.369235811377
 20
-40.640275971299
 10
8.554700767285
 20
-40.732054097268
  0
LWPOLYLINE
  5
23E
100
AcDbEntity
  8
Exterior View
370
           0
  6
Continuous
 62
           7
100
AcDbPolyline
 90
        6
 70
           0
 10
14.377106313134
 20
-35.824337923886
 10
14.088172853818
 20
-35.352277174107
 10
13.76951221776
 20
-34.887270721188
 10
13.420560563975
 20
-34.429631361861
 10
13.041572686632
 20
-33.980778816011
 10
12.633080854318
 20
-33.542273377579
  0
LWPOLYLINE
  5
23F
100
AcDbEntity
  8
Exterior View
370
           0
  6
Continuous
 62
           7
100
AcDbPolyline
 90
        6
 70
           0
 10
6.74850652619
 20
-35.824753917781
 10
7.037388500056
 20
-35.352661659245
 10
7.355998419842
 20
-34.887620455433
 10
7.704900160641
 20
-34.429943041579
 10
8.083839083125
 20
-33.981049165351
 10
8.494076885178
 20
-33.540573163574
  0
LWPOLYLINE
  5
240
100
AcDbEntity
  8
Exterior View
370
           0
  6
Continuous
 62
           7
100
AcDbPolyline
 90
       21
 70
           0
 10
14.713284111332
 20
-37.288698498712
 10
14.706665696433
 20
-37.519089894427
 10
14.687568818473
 20
-37.741101421287
 10
14.656264955444
 20
-37.959842412664
 10
14.613014845781
 20
-38.175175164887
 10
14.558071559942
 20
-38.386670620913
 10
14.491702194214
 20
-38.593800306882
 10
14.414196027323
 20
-38.795997654733
 10
14.325868117593
 20
-38.99268423015
 10
14.227060834382
 20
-39.183283396681
 10
14.118144286283
 20
-39.36722853119
 10
13.999516086864
 20
-39.543968535587
 10
13.871600685728
 20
-39.712971857199
 10
13.734848394513
 20
-39.873729608188
 10
13.589734188067
 20
-40.025758093629
 10
13.43675633446
 20
-40.168600920405
 10
13.27643489238
 20
-40.301830787523
 10
13.109310105432
 20
-40.425051019436
 10
12.935940717128
 20
-40.537896882007
 10
12.756902226434
 20
-40.640036708198
 10
12.570139229057
 20
-40.732482533485
  0
LWPOLYLINE
  5
241
100
AcDbEntity
  8
Exterior View
370
           0
  6
Continuous
 62
           7
100
AcDbPolyline
 90
        9
 70
           0
 10
6.942540529251
 20
-35.926858828628
 10
6.873335146822
 20
-36.081965723837
 10
6.807675124052
 20
-36.254842562154
 10
6.752522609036
 20
-36.429329000705
 10
6.707864950588
 20
-36.6047387725
 10
6.673634067093
 20
-36.780293945854
 10
6.649691135271
 20
-36.955025630342
 10
6.635785910479
 20
-37.127498594221
 10
6.631218893238
 20
-37.300449010727
  0
LWPOLYLINE
  5
242
100
AcDbEntity
  8
Exterior View
370
           0
  6
Continuous
 62
           7
100
AcDbPolyline
 90
       21
 70
           0
 10
6.631197524655
 20
-37.282844456232
 10
6.637661001283
 20
-37.506990670383
 10
6.655717018345
 20
-37.716633850826
 10
6.685300810724
 20
-37.923194916248
 10
6.726159165779
 20
-38.126504797937
 10
6.778046098707
 20
-38.326145837367
 10
6.840701035751
 20
-38.521609938273
 10
6.913841261569
 20
-38.712355213301
 10
6.997158776278
 20
-38.897830624759
 10
7.090319148893
 20
-39.077488948764
 10
7.1929614439
 20
-39.25079461346
 10
7.30469879638
 20
-39.417228956357
 10
7.425119412668
 20
-39.57629402719
 10
7.553787865422
 20
-39.727515484586
 10
7.690246597543
 20
-39.870444873717
 10
7.834017573351
 20
-40.004661445033
 10
7.984604028866
 20
-40.129773609017
 10
8.141492280978
 20
-40.245420087603
 10
8.3041535607
 20
-40.351270804868
 10
8.472045839946
 20
-40.447027550605
 10
8.641461816291
 20
-40.530863770456
  0
LWPOLYLINE
  5
243
100
AcDbEntity
  8
Exterior View
370
           0
  6
Continuous
 62
           7
100
AcDbPolyline
 90
       21
 70
           0
 10
14.494574335752
 20
-37.28241565975
 10
14.488135304921
 20
-37.506562577485
 10
14.470102152
 20
-37.716207725902
 10
14.440540887691
 20
-37.922772016552
 10
14.399704706193
 20
-38.126086353113
 10
14.347839546758
 20
-38.325733050231
 10
14.285205927727
 20
-38.521203983225
 10
14.212086505341
 20
-38.711957233914
 10
14.128789219384
 20
-38.897441731016
 10
14.035648441159
 20
-39.077110214177
 10
13.933025047766
 20
-39.250427072182
 10
13.821305847557
 20
-39.416873600351
 10
13.700902579887
 20
-39.575951803511
 10
13.572250620362
 20
-39.727187292803
 10
13.435807477169
 20
-39.870131563501
 10
13.292051140099
 20
-40.00436381392
 10
13.141478330421
 20
-40.12949240037
 10
12.984602691839
 20
-40.245155988761
 10
12.821952957339
 20
-40.351024445507
 10
12.654071122483
 20
-40.446799501286
 10
12.482221898328
 20
-40.53186315723
  0
LWPOLYLINE
  5
244
100
AcDbEntity
  8
Exterior View
370
           0
  6
Continuous
 62
           7
100
AcDbPolyline
 90
        6
 70
           0
 10
14.183083446958
 20
-35.926463995797
 10
13.904498147067
 20
-35.471310114153
 10
13.592159750007
 20
-35.015529406742
 10
13.249871030672
 20
-34.566628280977
 10
12.877838067642
 20
-34.12601275584
 10
12.476909286783
 20
-33.695626057934
  0
LWPOLYLINE
  5
245
100
AcDbEntity
  8
Exterior View
370
           0
  6
Continuous
 62
           7
100
AcDbPolyline
 90
        9
 70
           0
 10
14.183083446958
 20
-35.926463995797
 10
14.252305745191
 20
-36.081563342429
 10
14.317984621807
 20
-36.254433018727
 10
14.373156166277
 20
-36.428913441215
 10
14.41783295494
 20
-36.604318341528
 10
14.452082984571
 20
-36.779869780561
 10
14.476044972778
 20
-36.954598852754
 10
14.489969007677
 20
-37.12707029908
 10
14.494554887151
 20
-37.300020216471
  0
LWPOLYLINE
  5
246
100
AcDbEntity
  8
Exterior View
370
           0
  6
Continuous
 62
           7
100
AcDbPolyline
 90
        3
 70
           0
 10
12.046934061427
 20
-33.255225125325
 10
12.247122093762
 20
-33.473613597677
 10
12.476909286783
 20
-33.695626057934
  0
LWPOLYLINE
  5
247
100
AcDbEntity
  8
Exterior View
370
           0
  6
Continuous
 62
           7
100
AcDbPolyline
 90
        3
 70
           0
 10
9.078125909333
 20
-33.255225125325
 10
8.877937876998
 20
-33.473613597677
 10
8.653293744993
 20
-33.690657009771
  0
LWPOLYLINE
  5
248
100
AcDbEntity
  8
Exterior View
370
           0
  6
Continuous
 62
           7
100
AcDbPolyline
 90
        6
 70
           0
 10
6.942540529251
 20
-35.926858828628
 10
7.221076187646
 20
-35.471674566715
 10
7.533364874646
 20
-35.015859797868
 10
7.875604634041
 20
-34.566921344196
 10
8.247589540596
 20
-34.126265247145
 10
8.654190002993
 20
-33.689694689531
  0
ARC
  5
249
100
AcDbEntity
  8
Exterior View
370
           0
  6
Continuous
 62
           7
100
AcDbCircle
 10
10.56253160224
 20
-36.356197026164
 30
0.0
 40
4.814510335281
100
AcDbArc
 50
-114.647686457713
 51
-65.335156104121
  0
ARC
  5
24A
100
AcDbEntity
  8
Exterior View
370
           0
  6
Continuous
 62
           7
100
AcDbCircle
 10
10.56253160224
 20
-36.356197026164
 30
0.0
 40
4.595710335281
100
AcDbArc
 50
-114.664878156564
 51
-105.782903902859
  0
ARC
  5
24B
100
AcDbEntity
  8
Exterior View
370
           0
  6
Continuous
 62
           7
100
AcDbCircle
 10
10.56253160224
 20
-36.356197026164
 30
0.0
 40
4.595710335281
100
AcDbArc
 50
-74.217137992134
 51
-65.335156104121
  0
LINE
  5
24C
100
AcDbEntity
  8
Exterior View
370
           0
  6
Continuous
 62
           7
100
AcDbLine
 10
9.910301394276
 20
-30.755225125325
 30
0.0
 11
9.910301394276
 21
-30.762023914992
 31
0.0
1001
TCAD
1000
TCW_CUSTOM_DATA
1002
{
1000
#$AUX@_ToolInfo Properties
1070
           8
1000
Insert^JLine^JPerpendicular@Line Perpendicular
1002
}
  0
LINE
  5
24D
100
AcDbEntity
  8
Exterior View
370
           0
  6
Continuous
 62
           7
100
AcDbLine
 10
11.214758576484
 20
-30.755225125325
 30
0.0
 11
11.214758576484
 21
-30.762023914992
 31
0.0
1001
TCAD
1000
TCW_CUSTOM_DATA
1002
{
1000
#$AUX@_ToolInfo Properties
1070
           8
1000
Insert^JLine^JPerpendicular@Line Perpendicular
1002
}
  0
LINE
  5
24E
100
AcDbEntity
  8
Exterior View
370
           0
  6
Continuous
 62
           7
100
AcDbLine
 10
12.34375027539
 20
-33.255225125325
 30
0.0
 11
8.78130969537
 21
-33.255225125325
 31
0.0
1001
TCAD
1000
TCW_CUSTOM_DATA
1002
{
1000
#$AUX@_ToolInfo Properties
1070
           8
1000
Insert^JLine^JPerpendicular@Line Perpendicular
1002
}
  0
ARC
  5
24F
100
AcDbEntity
  8
Exterior View
370
           0
  6
Continuous
 62
           7
100
AcDbCircle
 10
9.37502998538
 20
-40.608207361445
 30
0.0
 40
0.0625
100
AcDbArc
 50
89.999983711039
 51
179.999983711039
1001
TCAD
1000
TCW_CUSTOM_DATA
1002
{
1000
#$AUX@_ToolInfo Properties
1070
           8
1000
Insert^JArc^JTanToEntities@Arc TanToEntities
1002
}
  0
ARC
  5
250
100
AcDbEntity
  8
Exterior View
370
           0
  6
Continuous
 62
           7
100
AcDbCircle
 10
11.75002998538
 20
-40.608207361445
 30
0.0
 40
0.0625
100
AcDbArc
 50
0.0
 51
90.0
1001
TCAD
1000
TCW_CUSTOM_DATA
1002
{
1000
#$AUX@_ToolInfo Properties
1070
           8
1000
Insert^JArc^JTanToEntities@Arc TanToEntities
1002
}
  0
LINE
  5
251
100
AcDbEntity
  8
Exterior View
370
           0
  6
Continuous
 62
           7
100
AcDbLine
 10
10.56253160224
 20
-40.545707361445
 30
0.0
 11
9.375029967611
 21
-40.545707361445
 31
0.0
1001
TCAD
1000
TCW_CUSTOM_DATA
1002
{
1000
#$AUX@_ToolInfo Properties
1070
           8
1000
Insert^JLine^JPerpendicular@Line Perpendicular
1002
}
  0
LINE
  5
252
100
AcDbEntity
  8
Exterior View
370
           0
  6
Continuous
 62
           7
100
AcDbLine
 10
9.31252998538
 20
-40.608207343676
 30
0.0
 11
9.31252998538
 21
-41.005606206519
 31
0.0
1001
TCAD
1000
TCW_CUSTOM_DATA
1002
{
1000
#$AUX@_ToolInfo Properties
1070
           8
1000
Insert^JLine^JPerpendicular@Line Perpendicular
1002
}
  0
LINE
  5
253
100
AcDbEntity
  8
Exterior View
370
           0
  6
Continuous
 62
           7
100
AcDbLine
 10
10.56253160224
 20
-40.545707361445
 30
0.0
 11
11.75002998538
 21
-40.545707361445
 31
0.0
1001
TCAD
1000
TCW_CUSTOM_DATA
1002
{
1000
#$AUX@_ToolInfo Properties
1070
           8
1000
Insert^JLine^JPerpendicular@Line Perpendicular
1002
}
  0
LINE
  5
254
100
AcDbEntity
  8
Exterior View
370
           0
  6
Continuous
 62
           7
100
AcDbLine
 10
11.81252998538
 20
-40.608207361445
 30
0.0
 11
11.81252998538
 21
-41.005607075909
 31
0.0
1001
TCAD
1000
TCW_CUSTOM_DATA
1002
{
1000
#$AUX@_ToolInfo Properties
1070
           8
1000
Insert^JLine^JPerpendicular@Line Perpendicular
1002
}
  0
LINE
  5
255
100
AcDbEntity
  8
Exterior View
370
           0
  6
Continuous
 62
           7
100
AcDbLine
 10
10.37502998538
 20
-32.255225125325
 30
0.0
 11
10.75002998538
 21
-32.255225125325
 31
0.0
1001
TCAD
1000
TCW_CUSTOM_DATA
1002
{
1000
#$AUX@_ToolInfo Properties
1070
           8
1000
Insert^JLine^JPerpendicular@Line Perpendicular
1002
}
  0
LINE
  5
256
100
AcDbEntity
  8
Exterior View
370
           0
  6
Continuous
 62
           7
100
AcDbLine
 10
10.37502998538
 20
-32.255225125325
 30
0.0
 11
10.37502998538
 21
-30.755225125325
 31
0.0
1001
TCAD
1000
TCW_CUSTOM_DATA
1002
{
1000
#$AUX@_ToolInfo Properties
1070
           8
1000
Insert^JLine^JPerpendicular@Line Perpendicular
1002
}
  0
LINE
  5
257
100
AcDbEntity
  8
Exterior View
370
           0
  6
Continuous
 62
           7
100
AcDbLine
 10
10.75002998538
 20
-32.255225125325
 30
0.0
 11
10.75002998538
 21
-30.755225125325
 31
0.0
1001
TCAD
1000
TCW_CUSTOM_DATA
1002
{
1000
#$AUX@_ToolInfo Properties
1070
           8
1000
Insert^JLine^JPerpendicular@Line Perpendicular
1002
}
  0
LINE
  5
258
100
AcDbEntity
  8
Exterior View
370
           0
  6
Continuous
 62
           7
100
AcDbLine
 10
10.75002998538
 20
-30.755225125325
 30
0.0
 11
11.314527191083
 21
-30.755225125325
 31
0.0
1001
TCAD
1000
TCW_CUSTOM_DATA
1002
{
1000
#$AUX@_ToolInfo Properties
1070
           8
1000
Insert^JLine^JSingle@Line Single
1002
}
  0
LWPOLYLINE
  5
259
100
AcDbEntity
  8
Exterior View
370
           0
  6
Continuous
 62
           7
100
AcDbPolyline
 90
        9
 70
           0
 10
14.377106313134
 20
-35.824337923886
 10
14.45463759309
 20
-35.998054358788
 10
14.524728614297
 20
-36.182536992654
 10
14.583650855532
 20
-36.368879021746
 10
14.631395365691
 20
-36.556328059504
 10
14.668015679412
 20
-36.744028591173
 10
14.693644654528
 20
-36.930913210455
 10
14.708535364387
 20
-37.115358472547
 10
14.713278010768
 20
-37.294220630682
  0
LINE
  5
25A
100
AcDbEntity
  8
Exterior View
370
           0
  6
Continuous
 62
           7
100
AcDbLine
 10
10.750031602239
 20
-40.545707361445
 30
0.0
 11
10.750031602239
 21
-33.255225125325
 31
0.0
  0
LINE
  5
25B
100
AcDbEntity
  8
Exterior View
370
           0
  6
Continuous
 62
           7
100
AcDbLine
 10
10.375031602239
 20
-40.545707361445
 30
0.0
 11
10.375031602239
 21
-33.255225125325
 31
0.0
  0
LINE
  5
25C
100
AcDbEntity
  8
Exterior View
370
           0
  6
Continuous
 62
           7
100
AcDbLine
 10
10.37502998538
 20
-30.755225125325
 30
0.0
 11
9.810532779677
 21
-30.755225125325
 31
0.0
1001
TCAD
1000
TCW_CUSTOM_DATA
1002
{
1000
#$AUX@_ToolInfo Properties
1070
           8
1000
Insert^JLine^JPerpendicular@Line Perpendicular
1002
}
  0
LINE
  5
25D
100
AcDbEntity
  8
Exterior View
370
           0
  6
Continuous
 62
           7
100
AcDbLine
 10
-0.17965751462
 20
-14.017364738012
 30
0.0
 11
0.025626391094
 21
-18.029356075237
 31
0.0
1001
TCAD
1000
TCW_CUSTOM_DATA
1002
{
1000
#$AUX@_ToolInfo Properties
1070
           8
1000
Insert^JLine^JSingle@Line Single
1002
}
  0
LINE
  5
25E
100
AcDbEntity
  8
Exterior View
370
           0
  6
Continuous
 62
           7
100
AcDbLine
 10
0.80471748538
 20
-14.100922632749
 30
0.0
 11
0.742395077412
 21
-18.054003891099
 31
0.0
1001
TCAD
1000
TCW_CUSTOM_DATA
1002
{
1000
#$AUX@_ToolInfo Properties
1070
           8
1000
Insert^JLine^JSingle@Line Single
1002
}
  0
CIRCLE
  5
25F
100
AcDbEntity
  8
Exterior View
370
           0
  6
Continuous
 62
           7
100
AcDbCircle
 10
0.383649593048
 20
-18.11646293362
 30
0.0
 40
0.0625
1001
TCAD
1000
TCW_CUSTOM_DATA
1002
{
1000
#$AUX@_ToolInfo Properties
1070
           8
1000
Insert^JCircle^JCenterAndPoint@Circle CenterAndPoint
1002
}
  0
CIRCLE
  5
260
100
AcDbEntity
  8
Exterior View
370
           0
  6
Continuous
 62
           7
100
AcDbCircle
 10
0.028820186984
 20
-18.091774419238
 30
0.0
 40
0.0625
1001
TCAD
1000
TCW_CUSTOM_DATA
1002
{
1000
#$AUX@_ToolInfo Properties
1070
           8
1000
Insert^JCircle^JCenterAndPoint@Circle CenterAndPoint
1002
}
  0
CIRCLE
  5
261
100
AcDbEntity
  8
Exterior View
370
           0
  6
Continuous
 62
           7
100
AcDbCircle
 10
0.741409854428
 20
-18.116496125302
 30
0.0
 40
0.0625
1001
TCAD
1000
TCW_CUSTOM_DATA
1002
{
1000
#$AUX@_ToolInfo Properties
1070
           8
1000
Insert^JCircle^JCenterAndPoint@Circle CenterAndPoint
1002
}
  0
CIRCLE
  5
262
100
AcDbEntity
  8
Exterior View
370
           0
  6
Continuous
 62
           7
100
AcDbCircle
 10
1.096234656136
 20
-18.091874631897
 30
0.0
 40
0.0625
1001
TCAD
1000
TCW_CUSTOM_DATA
1002
{
1000
#$AUX@_ToolInfo Properties
1070
           8
1000
Insert^JCircle^JCenterAndPoint@Circle CenterAndPoint
1002
}
  0
POINT
  5
263
100
AcDbEntity
  8
Exterior View
  6
Continuous
 62
           7
100
AcDbPoint
 10
0.028820186984
 20
-18.091774419238
 30
0.0
1001
TCAD
1000
TCW_CUSTOM_DATA
1002
{
1000
#$AUX@_ToolInfo Properties
1070
           8
1000
Insert^JPoint^JCross@Point Cross
1002
}
1000
TC25ExternalObject
1002
{
1000
TCW30POINT
1000

1070
           0
1071
        0
1040
1.0
1040
0.0
1000
Continuous
1000
Exterior View
1070
          21
1071
        1
1071
      242
1010
0.028820186984
1020
-18.091774419238
1030
0.0
1070
           3
1071
-2147483645
1070
           1
1000
#$AUX@_ToolInfo Properties
1070
           8
1000
Insert^JPoint^JCross@Point Cross
1000
$POINTSIZE
1070
           5
1040
0.25
1000
$POINTTYPE
1070
          18
1070
           3
1000
ExplodeScale
1070
           5
1040
1.0
1002
}
  0
POINT
  5
264
100
AcDbEntity
  8
Exterior View
  6
Continuous
 62
           7
100
AcDbPoint
 10
0.383649593048
 20
-18.11646293362
 30
0.0
1001
TCAD
1000
TCW_CUSTOM_DATA
1002
{
1000
#$AUX@_ToolInfo Properties
1070
           8
1000
Insert^JPoint^JCross@Point Cross
1002
}
1000
TC25ExternalObject
1002
{
1000
TCW30POINT
1000

1070
           0
1071
        0
1040
1.0
1040
0.0
1000
Continuous
1000
Exterior View
1070
          21
1071
        1
1071
      242
1010
0.383649593048
1020
-18.11646293362
1030
0.0
1070
           3
1071
-2147483645
1070
           1
1000
#$AUX@_ToolInfo Properties
1070
           8
1000
Insert^JPoint^JCross@Point Cross
1000
$POINTSIZE
1070
           5
1040
0.25
1000
$POINTTYPE
1070
          18
1070
           3
1000
ExplodeScale
1070
           5
1040
1.0
1002
}
  0
POINT
  5
265
100
AcDbEntity
  8
Exterior View
  6
Continuous
 62
           7
100
AcDbPoint
 10
0.741409854428
 20
-18.116496125302
 30
0.0
1001
TCAD
1000
TCW_CUSTOM_DATA
1002
{
1000
#$AUX@_ToolInfo Properties
1070
           8
1000
Insert^JPoint^JCross@Point Cross
1002
}
1000
TC25ExternalObject
1002
{
1000
TCW30POINT
1000

1070
           0
1071
        0
1040
1.0
1040
0.0
1000
Continuous
1000
Exterior View
1070
          21
1071
        1
1071
      242
1010
0.741409854428
1020
-18.116496125302
1030
0.0
1070
           3
1071
-2147483645
1070
           1
1000
#$AUX@_ToolInfo Properties
1070
           8
1000
Insert^JPoint^JCross@Point Cross
1000
$POINTSIZE
1070
           5
1040
0.25
1000
$POINTTYPE
1070
          18
1070
           3
1000
ExplodeScale
1070
           5
1040
1.0
1002
}
  0
POINT
  5
266
100
AcDbEntity
  8
Exterior View
  6
Continuous
 62
           7
100
AcDbPoint
 10
1.096234656136
 20
-18.091874631897
 30
0.0
1001
TCAD
1000
TCW_CUSTOM_DATA
1002
{
1000
#$AUX@_ToolInfo Properties
1070
           8
1000
Insert^JPoint^JCross@Point Cross
1002
}
1000
TC25ExternalObject
1002
{
1000
TCW30POINT
1000

1070
           0
1071
        0
1040
1.0
1040
0.0
1000
Continuous
1000
Exterior View
1070
          21
1071
        1
1071
      242
1010
1.096234656136
1020
-18.091874631897
1030
0.0
1070
           3
1071
-2147483645
1070
           1
1000
#$AUX@_ToolInfo Properties
1070
           8
1000
Insert^JPoint^JCross@Point Cross
1000
$POINTSIZE
1070
           5
1040
0.25
1000
$POINTTYPE
1070
          18
1070
           3
1000
ExplodeScale
1070
           5
1040
1.0
1002
}
  0
LINE
  5
267
100
AcDbEntity
  8
Exterior View
370
           0
  6
Continuous
 62
           7
100
AcDbLine
 10
-5.906268250128
 20
-18.17896293362
 30
0.0
 11
-5.906268250128
 21
-18.029274419238
 31
0.0
1001
TCAD
1000
TCW_CUSTOM_DATA
1002
{
1000
#$AUX@_ToolInfo Properties
1070
           8
1000
Insert^JLine^JPerpendicular@Line Perpendicular
1002
}
  0
LINE
  5
268
100
AcDbEntity
  8
Exterior View
370
           0
  6
Continuous
 62
           7
100
AcDbLine
 10
-5.906268250128
 20
-18.029274419238
 30
0.0
 11
-6.03122001462
 21
-18.029274419238
 31
0.0
  0
LINE
  5
269
100
AcDbEntity
  8
Hidden
370
           0
  6
HIDDEN
 62
           7
 48
0.20000000298
100
AcDbLine
 10
-6.03122001462
 20
-18.029274419238
 30
0.0
 11
-7.156268250128
 21
-18.029274419238
 31
0.0
  0
LINE
  5
26A
100
AcDbEntity
  8
Hidden
370
           0
  6
HIDDEN
 62
           7
 48
0.20000000298
100
AcDbLine
 10
-6.03122001462
 20
-18.154274419238
 30
0.0
 11
-7.156268250128
 21
-18.154274419238
 31
0.0
  0
LINE
  5
26B
100
AcDbEntity
  8
Hidden
370
           0
  6
HIDDEN
 62
           7
 48
0.20000000298
100
AcDbLine
 10
-7.156268250128
 20
-18.029274419238
 30
0.0
 11
-7.156268250128
 21
-18.17896293362
 31
0.0
1001
TCAD
1000
TCW_CUSTOM_DATA
1002
{
1000
#$AUX@_ToolInfo Properties
1070
           8
1000
Insert^JLine^JPerpendicular@Line Perpendicular
1002
}
  0
LINE
  5
26C
100
AcDbEntity
  8
Exterior View
370
           0
  6
Continuous
 62
           7
 48
0.20000000298
100
AcDbLine
 10
-5.906268250128
 20
-18.154274419238
 30
0.0
 11
-6.03122001462
 21
-18.154274419238
 31
0.0
  0
LINE
  5
26D
100
AcDbEntity
  8
Exterior View
370
           0
  6
Continuous
 62
           7
 48
0.20000000298
100
AcDbLine
 10
-5.906268250128
 20
-18.17896293362
 30
0.0
 11
-6.03122001462
 21
-18.17896293362
 31
0.0
  0
LINE
  5
26E
100
AcDbEntity
  8
Hidden
370
           0
  6
HIDDEN
 62
           7
 48
0.20000000298
100
AcDbLine
 10
-6.03122001462
 20
-18.17896293362
 30
0.0
 11
-7.156268250128
 21
-18.17896293362
 31
0.0
  0
LINE
  5
26F
100
AcDbEntity
  8
Hidden
370
           0
  6
HIDDEN
 62
           7
 48
0.20000000298
100
AcDbLine
 10
-5.906268250128
 20
-18.05396293362
 30
0.0
 11
-7.156268250128
 21
-18.05396293362
 31
0.0
1001
TCAD
1000
TCW_CUSTOM_DATA
1002
{
1000
#$AUX@_ToolInfo Properties
1070
           8
1000
Insert^JLine^JPerpendicular@Line Perpendicular
1002
}
  0
ARC
  5
270
100
AcDbEntity
  8
Exterior View
370
           0
  6
Continuous
 62
           7
100
AcDbCircle
 10
-8.03122001462
 20
-5.954920694246
 30
0.0
 40
1.375
100
AcDbArc
 50
-82.505282546074
 51
0.0
  0
LINE
  5
271
100
AcDbEntity
  8
Exterior View
370
           0
  6
Continuous
 62
           7
100
AcDbLine
 10
-6.129645211471
 20
-18.309272647409
 30
0.0
 11
-6.129645211471
 21
-7.817639975619
 31
0.0
1001
TCAD
1000
TCW_CUSTOM_DATA
1002
{
1000
#$AUX@_ToolInfo Properties
1070
           8
1000
Insert^JLine^JPerpendicular@Line Perpendicular
1002
}
  0
LINE
  5
272
100
AcDbEntity
  8
Exterior View
370
           0
  6
Continuous
 62
           7
100
AcDbLine
 10
-0.17965751462
 20
-14.017364738012
 30
0.0
 11
-0.17965751462
 21
-13.954639975619
 31
0.0
1001
TCAD
1000
TCW_CUSTOM_DATA
1002
{
1000
#$AUX@_ToolInfo Properties
1070
           8
1000
Insert^JLine^JPerpendicular@Line Perpendicular
1002
}
  0
LINE
  5
273
100
AcDbEntity
  8
Exterior View
370
           0
  6
Continuous
 62
           7
100
AcDbLine
 10
1.30471748538
 20
-14.143364738012
 30
0.0
 11
1.30471748538
 21
-14.080639975619
 31
0.0
1001
TCAD
1000
TCW_CUSTOM_DATA
1002
{
1000
#$AUX@_ToolInfo Properties
1070
           8
1000
Insert^JLine^JPerpendicular@Line Perpendicular
1002
}
  0
LINE
  5
274
100
AcDbEntity
  8
Exterior View
370
           0
  6
Continuous
 62
           7
100
AcDbLine
 10
0.30471748538
 20
-13.995755765093
 30
0.0
 11
0.30471748538
 21
-14.058480527485
 31
0.0
1001
TCAD
1000
TCW_CUSTOM_DATA
1002
{
1000
#$AUX@_ToolInfo Properties
1070
           8
1000
Insert^JLine^JSingle@Line Single
1002
}
  0
LINE
  5
275
100
AcDbEntity
  8
Exterior View
370
           0
  6
Continuous
 62
           7
100
AcDbLine
 10
0.80471748538
 20
-14.038197870356
 30
0.0
 11
0.80471748538
 21
-14.100922632749
 31
0.0
1001
TCAD
1000
TCW_CUSTOM_DATA
1002
{
1000
#$AUX@_ToolInfo Properties
1070
           8
1000
Insert^JLine^JSingle@Line Single
1002
}
  0
LINE
  5
276
100
AcDbEntity
  8
Exterior View
370
           0
  6
Continuous
 62
           7
100
AcDbLine
 10
-1.24997001462
 20
-14.174002356815
 30
0.0
 11
2.37502998538
 21
-14.174002356815
 31
0.0
1001
TCAD
1000
TCW_CUSTOM_DATA
1002
{
1000
#$AUX@_ToolInfo Properties
1070
           8
1000
Insert^JLine^JPerpendicular@Line Perpendicular
1002
}
  0
LINE
  5
277
100
AcDbEntity
  8
Exterior View
370
           0
  6
Continuous
 62
           7
100
AcDbLine
 10
-0.43747001462
 20
-14.174002356815
 30
0.0
 11
-0.43747001462
 21
-13.924002356815
 31
0.0
1001
TCAD
1000
TCW_CUSTOM_DATA
1002
{
1000
#$AUX@_ToolInfo Properties
1070
           8
1000
Insert^JLine^JSingle@Line Single
1002
}
  0
LINE
  5
278
100
AcDbEntity
  8
Exterior View
370
           0
  6
Continuous
 62
           7
100
AcDbLine
 10
1.56252998538
 20
-13.924002356815
 30
0.0
 11
1.56252998538
 21
-14.174002356815
 31
0.0
1001
TCAD
1000
TCW_CUSTOM_DATA
1002
{
1000
#$AUX@_ToolInfo Properties
1070
           8
1000
Insert^JLine^JSingle@Line Single
1002
}
  0
LINE
  5
279
100
AcDbEntity
  8
Exterior View
370
           0
  6
Continuous
 62
           7
100
AcDbLine
 10
-1.24997001462
 20
-13.924002356815
 30
0.0
 11
2.37502998538
 21
-13.924002356815
 31
0.0
1001
TCAD
1000
TCW_CUSTOM_DATA
1002
{
1000
#$AUX@_ToolInfo Properties
1070
           8
1000
Insert^JLine^JSingle@Line Single
1002
}
  0
LINE
  5
27A
100
AcDbEntity
  8
Exterior View
370
           0
  6
Continuous
 62
           7
100
AcDbLine
 10
1.43752998538
 20
-14.154638422222
 30
0.0
 11
-0.31247001462
 21
-14.006091053801
 31
0.0
1001
TCAD
1000
TCW_CUSTOM_DATA
1002
{
1000
#$AUX@_ToolInfo Properties
1070
           8
1000
Insert^JLine^JSingle@Line Single
1002
}
  0
LINE
  5
27B
100
AcDbEntity
  8
Exterior View
370
           0
  6
Continuous
 62
           7
100
AcDbLine
 10
-0.31247001462
 20
-13.943366291409
 30
0.0
 11
1.43752998538
 21
-14.09191365983
 31
0.0
1001
TCAD
1000
TCW_CUSTOM_DATA
1002
{
1000
#$AUX@_ToolInfo Properties
1070
           8
1000
Insert^JLine^JSingle@Line Single
1002
}
  0
LINE
  5
27C
100
AcDbEntity
  8
Exterior View
370
           0
  6
Continuous
 62
           7
100
AcDbLine
 10
-0.31247001462
 20
-14.174002356815
 30
0.0
 11
-0.31247001462
 21
-13.924002356815
 31
0.0
1001
TCAD
1000
TCW_CUSTOM_DATA
1002
{
1000
#$AUX@_ToolInfo Properties
1070
           8
1000
Insert^JLine^JPerpendicular@Line Perpendicular
1002
}
  0
LINE
  5
27D
100
AcDbEntity
  8
Exterior View
370
           0
  6
Continuous
 62
           7
100
AcDbLine
 10
1.43752998538
 20
-14.174002356815
 30
0.0
 11
1.43752998538
 21
-13.924002356815
 31
0.0
1001
TCAD
1000
TCW_CUSTOM_DATA
1002
{
1000
#$AUX@_ToolInfo Properties
1070
           8
1000
Insert^JLine^JPerpendicular@Line Perpendicular
1002
}
  0
LINE
  5
27E
100
AcDbEntity
  8
Exterior View
370
           0
  6
Continuous
 62
           7
100
AcDbLine
 10
-1.24997001462
 20
-14.174002356815
 30
0.0
 11
-1.24997001462
 21
-13.924002356815
 31
0.0
1001
TCAD
1000
TCW_CUSTOM_DATA
1002
{
1000
#$AUX@_ToolInfo Properties
1070
           8
1000
Insert^JLine^JSingle@Line Single
1002
}
  0
LINE
  5
27F
100
AcDbEntity
  8
Exterior View
370
           0
  6
Continuous
 62
           7
100
AcDbLine
 10
2.37502998538
 20
-13.924002356815
 30
0.0
 11
2.37502998538
 21
-14.174002356815
 31
0.0
1001
TCAD
1000
TCW_CUSTOM_DATA
1002
{
1000
#$AUX@_ToolInfo Properties
1070
           8
1000
Insert^JLine^JSingle@Line Single
1002
}
  0
LINE
  5
280
100
AcDbEntity
  8
Exterior View
370
           0
  6
Continuous
 62
           7
100
AcDbLine
 10
-0.17965751462
 20
-36.954949887717
 30
0.0
 11
-0.17965751462
 21
-36.892225125325
 31
0.0
1001
TCAD
1000
TCW_CUSTOM_DATA
1002
{
1000
#$AUX@_ToolInfo Properties
1070
           8
1000
Insert^JLine^JPerpendicular@Line Perpendicular
1002
}
  0
LINE
  5
281
100
AcDbEntity
  8
Exterior View
370
           0
  6
Continuous
 62
           7
100
AcDbLine
 10
1.30471748538
 20
-37.080949887717
 30
0.0
 11
1.30471748538
 21
-37.018225125325
 31
0.0
1001
TCAD
1000
TCW_CUSTOM_DATA
1002
{
1000
#$AUX@_ToolInfo Properties
1070
           8
1000
Insert^JLine^JPerpendicular@Line Perpendicular
1002
}
  0
LINE
  5
282
100
AcDbEntity
  8
Exterior View
370
           0
  6
Continuous
 62
           7
100
AcDbLine
 10
0.30471748538
 20
-36.933340914799
 30
0.0
 11
0.30471748538
 21
-36.996065677191
 31
0.0
1001
TCAD
1000
TCW_CUSTOM_DATA
1002
{
1000
#$AUX@_ToolInfo Properties
1070
           8
1000
Insert^JLine^JSingle@Line Single
1002
}
  0
LINE
  5
283
100
AcDbEntity
  8
Exterior View
370
           0
  6
Continuous
 62
           7
100
AcDbLine
 10
0.80471748538
 20
-36.975783020062
 30
0.0
 11
0.80471748538
 21
-37.038507782454
 31
0.0
1001
TCAD
1000
TCW_CUSTOM_DATA
1002
{
1000
#$AUX@_ToolInfo Properties
1070
           8
1000
Insert^JLine^JSingle@Line Single
1002
}
  0
LINE
  5
284
100
AcDbEntity
  8
Exterior View
370
           0
  6
Continuous
 62
           7
100
AcDbLine
 10
-1.24997001462
 20
-37.111587506521
 30
0.0
 11
2.37502998538
 21
-37.111587506521
 31
0.0
1001
TCAD
1000
TCW_CUSTOM_DATA
1002
{
1000
#$AUX@_ToolInfo Properties
1070
           8
1000
Insert^JLine^JPerpendicular@Line Perpendicular
1002
}
  0
LINE
  5
285
100
AcDbEntity
  8
Exterior View
370
           0
  6
Continuous
 62
           7
100
AcDbLine
 10
-0.43747001462
 20
-37.111587506521
 30
0.0
 11
-0.43747001462
 21
-36.861587506521
 31
0.0
1001
TCAD
1000
TCW_CUSTOM_DATA
1002
{
1000
#$AUX@_ToolInfo Properties
1070
           8
1000
Insert^JLine^JSingle@Line Single
1002
}
  0
LINE
  5
286
100
AcDbEntity
  8
Exterior View
370
           0
  6
Continuous
 62
           7
100
AcDbLine
 10
1.56252998538
 20
-36.861587506521
 30
0.0
 11
1.56252998538
 21
-37.111587506521
 31
0.0
1001
TCAD
1000
TCW_CUSTOM_DATA
1002
{
1000
#$AUX@_ToolInfo Properties
1070
           8
1000
Insert^JLine^JSingle@Line Single
1002
}
  0
LINE
  5
287
100
AcDbEntity
  8
Exterior View
370
           0
  6
Continuous
 62
           7
100
AcDbLine
 10
-1.24997001462
 20
-36.861587506521
 30
0.0
 11
2.37502998538
 21
-36.861587506521
 31
0.0
1001
TCAD
1000
TCW_CUSTOM_DATA
1002
{
1000
#$AUX@_ToolInfo Properties
1070
           8
1000
Insert^JLine^JSingle@Line Single
1002
}
  0
LINE
  5
288
100
AcDbEntity
  8
Exterior View
370
           0
  6
Continuous
 62
           7
100
AcDbLine
 10
1.43752998538
 20
-37.092223571928
 30
0.0
 11
-0.31247001462
 21
-36.943676203507
 31
0.0
1001
TCAD
1000
TCW_CUSTOM_DATA
1002
{
1000
#$AUX@_ToolInfo Properties
1070
           8
1000
Insert^JLine^JSingle@Line Single
1002
}
  0
LINE
  5
289
100
AcDbEntity
  8
Exterior View
370
           0
  6
Continuous
 62
           7
100
AcDbLine
 10
-0.31247001462
 20
-36.880951441115
 30
0.0
 11
1.43752998538
 21
-37.029498809536
 31
0.0
1001
TCAD
1000
TCW_CUSTOM_DATA
1002
{
1000
#$AUX@_ToolInfo Properties
1070
           8
1000
Insert^JLine^JSingle@Line Single
1002
}
  0
LINE
  5
28A
100
AcDbEntity
  8
Exterior View
370
           0
  6
Continuous
 62
           7
100
AcDbLine
 10
-0.31247001462
 20
-37.111587506521
 30
0.0
 11
-0.31247001462
 21
-36.861587506521
 31
0.0
1001
TCAD
1000
TCW_CUSTOM_DATA
1002
{
1000
#$AUX@_ToolInfo Properties
1070
           8
1000
Insert^JLine^JPerpendicular@Line Perpendicular
1002
}
  0
LINE
  5
28B
100
AcDbEntity
  8
Exterior View
370
           0
  6
Continuous
 62
           7
100
AcDbLine
 10
1.43752998538
 20
-37.111587506521
 30
0.0
 11
1.43752998538
 21
-36.861587506521
 31
0.0
1001
TCAD
1000
TCW_CUSTOM_DATA
1002
{
1000
#$AUX@_ToolInfo Properties
1070
           8
1000
Insert^JLine^JPerpendicular@Line Perpendicular
1002
}
  0
LINE
  5
28C
100
AcDbEntity
  8
Exterior View
370
           0
  6
Continuous
 62
           7
100
AcDbLine
 10
-1.24997001462
 20
-37.111587506521
 30
0.0
 11
-1.24997001462
 21
-36.861587506521
 31
0.0
1001
TCAD
1000
TCW_CUSTOM_DATA
1002
{
1000
#$AUX@_ToolInfo Properties
1070
           8
1000
Insert^JLine^JSingle@Line Single
1002
}
  0
LINE
  5
28D
100
AcDbEntity
  8
Exterior View
370
           0
  6
Continuous
 62
           7
100
AcDbLine
 10
2.37502998538
 20
-36.861587506521
 30
0.0
 11
2.37502998538
 21
-37.111587506521
 31
0.0
1001
TCAD
1000
TCW_CUSTOM_DATA
1002
{
1000
#$AUX@_ToolInfo Properties
1070
           8
1000
Insert^JLine^JSingle@Line Single
1002
}
  0
LINE
  5
28E
100
AcDbEntity
  8
Exterior View
370
           0
  6
Continuous
 62
           7
100
AcDbLine
 10
0.30471748538
 20
-14.058480527485
 30
0.0
 11
0.382434360828
 21
-18.053986571189
 31
0.0
1001
TCAD
1000
TCW_CUSTOM_DATA
1002
{
1000
#$AUX@_ToolInfo Properties
1070
           8
1000
Insert^JLine^JSingle@Line Single
1002
}
  0
LINE
  5
28F
100
AcDbEntity
  8
Exterior View
370
           0
  6
Continuous
 62
           7
100
AcDbLine
 10
1.099530089548
 20
-18.029461571415
 30
0.0
 11
1.30471748538
 21
-14.143364738012
 31
0.0
1001
TCAD
1000
TCW_CUSTOM_DATA
1002
{
1000
#$AUX@_ToolInfo Properties
1070
           8
1000
Insert^JLine^JSingle@Line Single
1002
}
  0
ENDSEC
  0
SECTION
  2
OBJECTS
  0
DICTIONARY
  5
19
100
AcDbDictionary
280
           0
281
           1
  3
ACAD_GROUP
350
1A
  3
ACAD_MLINESTYLE
350
1B
  3
ACAD_LAYOUT
350
1E
  3
ACAD_PLOTSETTINGS
350
22
  3
ACAD_PLOTSTYLENAME
350
1F
  0
DICTIONARY
  5
1A
102
{ACAD_REACTORS
330
19
102
}
100
AcDbDictionary
280
           0
281
           1
  0
DICTIONARY
  5
1B
102
{ACAD_REACTORS
330
19
102
}
100
AcDbDictionary
280
           0
281
           1
  3
Standard
350
1C
  0
MLINESTYLE
  5
1C
100
AcDbMlineStyle
  2
STANDARD
 70
           0
  3

 62
         256
 51
90.0
 52
90.0
 71
           3
 49
0.25
 62
           7
  6
ByLayer
 49
0.0
 62
           7
  6
ByLayer
 49
-0.25
 62
           7
  6
ByLayer
  0
ACDBDICTIONARYWDFLT
  5
1F
102
{ACAD_REACTORS
330
19
102
}
100
AcDbDictionary
281
           1
  3
Normal
350
1D
100
AcDbDictionaryWithDefault
340
1D
  0
ACDBPLACEHOLDER
  5
1D
102
{ACAD_REACTORS
330
1F
102
}
  0
LAYOUT
  5
21
102
{ACAD_REACTORS
330
1E
102
}
100
AcDbPlotSettings
  1

  2

  4

  6

 40
0.0
 41
0.0
 42
0.0
 43
0.0
 44
0.0
 45
0.0
 46
0.0
 47
0.0
 48
0.0
 49
0.0
140
0.0
141
0.0
142
1.0
143
1.0
 70
           0
 72
           0
 73
           0
 74
           0
  7

 75
           0
147
1.0
148
0.0
149
0.0
100
AcDbLayout
  1
Layout1
 70
           0
 71
           0
 10
0.0
 20
0.0
 11
0.0
 21
0.0
 12
0.0
 22
0.0
 32
0.0
 14
0.0
 24
0.0
 34
0.0
 15
0.0
 25
0.0
 35
0.0
146
0.0
 13
0.0
 23
0.0
 33
0.0
 16
0.0
 26
0.0
 36
0.0
 17
0.0
 27
0.0
 37
0.0
 76
           0
330
B
331
0
345
0
346
0
  0
DICTIONARY
  5
1E
102
{ACAD_REACTORS
330
19
102
}
100
AcDbDictionary
280
           0
281
           1
  3
Model
350
290
  3
Paper 1
350
291
  0
DICTIONARY
  5
22
102
{ACAD_REACTORS
330
19
102
}
100
AcDbDictionary
280
           0
281
           1
  0
LAYOUT
  5
290
100
AcDbPlotSettings
  1

  2

  4

  6

 40
0.0
 41
0.0
 42
0.0
 43
0.0
 44
0.0
 45
0.0
 46
0.0
 47
0.0
 48
0.0
 49
0.0
140
0.0
141
0.0
142
1.0
143
1.0
 70
           0
 72
           0
 73
           0
 74
           0
  7

 75
           0
147
1.0
148
0.0
149
0.0
100
AcDbLayout
  1
Model
 70
           0
 71
           0
 10
0.0
 20
0.0
 11
0.0
 21
0.0
 12
0.0
 22
0.0
 32
0.0
 14
0.0
 24
0.0
 34
0.0
 15
0.0
 25
0.0
 35
0.0
146
0.0
 13
0.0
 23
0.0
 33
0.0
 16
0.0
 26
0.0
 36
0.0
 17
0.0
 27
0.0
 37
0.0
 76
           0
330
A
331
0
345
0
346
0
  0
LAYOUT
  5
291
100
AcDbPlotSettings
  1

  2
none_device
  4

  6

 40
1.69418
 41
6.39318
 42
12.7
 43
6.35
 44
279.4
 45
215.9
 46
-1.69418
 47
-6.39318
 48
0.0
 49
0.0
140
0.0
141
0.0
142
1.0
143
1.0
 70
           0
 72
           0
 73
           0
 74
           0
  7

 75
           0
147
1.0
148
0.0
149
0.0
100
AcDbLayout
  1
Paper 1
 70
           1
 71
           1
 10
0.0
 20
0.0
 11
279.4
 21
215.9
 12
0.0
 22
0.0
 32
0.0
 14
0.0
 24
0.0
 34
0.0
 15
0.0
 25
0.0
 35
0.0
146
0.0
 13
0.0
 23
0.0
 33
0.0
 16
0.0
 26
0.0
 36
0.0
 17
0.0
 27
0.0
 37
0.0
 76
           0
330
B
331
0
345
0
346
0
  0
ENDSEC
  0
EOF
